Paso El Tiempo, Belanova (tablatura)

Autor: jcc666 | 38124 visualizaciones



Hola a todos, aquí esta Paso el tiempo de Belanova.

Nota - Los (••••) después de una nota en el tab significa que sigue sonando.

Acordes :

        E A D G B e
E     = 0 2 2 1 0 0
B     = x 2 4 4 4 2
A     = 5 7 7 6 5 5  ó  x 0 2 2 2 0
C#m   = x 4 6 6 5 4


Intro :

e ---------------------------------------------------------------
B ---0---0-----0----0---0-----0----------------------------------
G ---------------------------------2---2-----2----2---2-----2----
D -2---2---2-2----2---2---2-2----2---2---2-2----2---2---2-2------
A ---------------------------------------------------------------
E ---------------------------------------------------------------


Verso 1 :

E        B                   A
Paso el tiempo en mi habitación
         C#m
Paso el tiempo ya sin ti
E         B             C#m     A
En mis fotografías me duele verte,


E        B           A
Tropezando con mi reloj
        C#m
Veo el día transcurrir
E         B
Y aunque tú estés lejos
     C#m     A
Quiero decirte.


Precoro :

E            B
A pesar de lo que sucedió
   C#m          A
No era mi intención.


Coro :
          E
Quiero decirte que
             B
Sé que me equivoqué
     C#m
Aunque me duela perder
    A
Lo siento si fallé,

          E
Quiero decirte que
            B
Nunca te olvidaré
     C#m
Aunque no puedas volver
         A                     E
No es fácil para mí vivir sin ti.


e ---------------------------------------------------------------
B ---0---0-----0----0---0-----0----------------------------------
G ---------------------------------2---2-----2----2---2-----2----
D -2---2---2-2----2---2---2-2----2---2---2-2----2---2---2-2------
A ---------------------------------------------------------------
E ---------------------------------------------------------------


Verso 2 :

E        B                  A
Todo el tiempo hablando de ti
       C#m
Preguntando sin saber
E       B
Cómo, cuándo y dónde
    C#m    A
Te fui perdiendo,

E        B           A
Tropezando con mi reloj
        C#m
Veo el día transcurrir
E         B
Si puedes escucharme
    C#m   A
Yo te recuerdo.


Precoro :

E            B
A pesar de lo que sucedió
   C#m          A
No era mi intención.


Coro :
          E
Quiero decirte que
             B
Sé que me equivoqué
     C#m
Aunque me duela perder
    A
Lo siento si fallé,

          E
Quiero decirte que
            B
Nunca te olvidaré
     C#m
Aunque no puedas volver
         A                     E
No es fácil para mí vivir sin ti.


Solo :

e ----------------19········----16-17-16----0-----------------------
B -17·············----------17-----------17---12·10·9sssss17······--
G ------------------------------------------------------------------
D ------------------------------------------------------------------
A ------------------------------------------------------------------
E ------------------------------------------------------------------

          E          B
Quiero decirte que
             C#m       A
Sé que me equivoqué  Ahaa
          E          B
Quiero decirte que
            C#m  A       E
Nunca te olvidaré      ahaa


                                                       FIN

Cualquier cosa a mi mail jc_xj@hotmail.com





Calificar esta versión:
Aviso: Este fichero es trabajo propio de su transcriptor y representa su interpretación personal de la canción. El material contenido en esta página es para exclusivo uso privado, por lo que se prohibe su reproducción o retransmisión, así como su uso para fines comerciales.