Niño, Belanova (tablatura)

Autor: jcc666 | 46079 visualizaciones



Hola a todos , aquí esta Niño de Belanova .

Nota - Los acordes que están entre [ ] solo se rasguean una vez .

       El Riff que este entre [ ] quiere decir que empieza 
       en [ y termina en ] y el Riff se toca 2 o mas veces .

Acordes :

        E A D G B e
E    =  0 2 2 1 0 0
B    =  x 2 4 4 4 2
C#m  =  x 4 6 6 5 4
A    =  x 0 2 2 2 0
F#m  =  2 4 4 2 2 2


Intro Teclado y Riff 1 :

e --7-0-4-0-5-0-7-0-7-0-7-0--5-0-4-0-2-0-5-0-4-0-2-
B -------------------------------------------------
G -------------------------------------------------
D -------------------------------------------------
A -------------------------------------------------
E -------------------------------------------------

                Riff 2 :

e --0-4--5-4-0-7-0-4-0-5-4--
B --------------------------
G --------------------------
D --------------------------
A --------------------------
E --------------------------


Verso 1 :

E  B     C#m        A
[ Riff 1 ...
Niño es hora de partir
    E    B      A      C#m       A    C#m
                     ... Riff 1 ][ Riff 2 ...
La vida me invitó  hacia otro lugar

     E   B
Sin ti
  A    C#m
¿Ves?
     E       B
También me duele
A C#m    E   B
Es lo mejor
     A    C#m
Déjame irme
     E     B
             ... Riff 2 ]
Déjame partir


Coro :

  E  B               C#m    A
Amor, sabes que es lo mejor
  E  A    C#m  B
Amor, entiéndeme
  E  B               C#m
Amor, sabes que es lo mejor
A      C#m        A
Esperaré que tú lo entiendas


Teclado :

e --7-0-4-0-5-0-7-0-7-0-7-0--5-0-4-0-2-0-5-0-4-0-2-
B -------------------------------------------------
G -------------------------------------------------
D -------------------------------------------------
A -------------------------------------------------
E -------------------------------------------------


Verso :

[E] [B]     [C#m]
Piensa que todo pasará
   [E]    [B]   [C#m]
No debes de llorar
                A   C#m
                [ Riff 2 ...
Las cosas son así

     E   B
Sin ti
  A    C#m
¿Ves?
     E       B
                ... Riff 2 ]
También me duele


Coro :

  E  B               C#m    A
Amor, sabes que es lo mejor
  E  A    C#m  B
Amor, entiéndeme
  E  B               C#m
Amor, sabes que es lo mejor
A      C#m        A
Esperaré que tú lo entiendas


Guitarra :

e -----------------------------------------------------
B -------------------------------------------9---------
G --9-8--8-9-9---9-8--8-9-9---9-8--8-9-9---9-8--8-9-9--
D --9-9--9-9-9---9-9--9-9-9---9-9--9-9-9---9-9--9-9-9--
A -----------------------------------------------------
E -----------------------------------------------------

e -----------------------------------------------------
B -------------------------------------------9---------
G --9---8---9----9-8--8-9-9---9---8---9----9-8--8-9-9--
D --9---9---9----9-9--9-9-9---9---9---9----9-9--9-9-9--
A -----------------------------------------------------
E -----------------------------------------------------


Verso :

F#m        A             C#m
La vida tiene algo para ti
           B
Me duele no ser yo
F#m           A
Lo siento, niño
            E
Debo de partir
    B    A      C#m  E   B   A   C#m
         [ Riff 2...
Entiéndeme, entiéndeme eee eee eee
  E      B
ah ah ah ah 
A   C#m    E
oh..oho oh oh..
B        A      C#m
oho oh oh oh oh
       E    B
oho oh oh...

A   C#m    E
oh..oho oh oh..
B        A      C#m
oho oh oh oh oh
       E    B
oho oh oh...

[A]  [C#m]  [E]  [B]  [A...]
                      ... Riff 2 ]

                                                       FIN

Cualquier cosa a mi email .





Calificar esta versión:
Aviso: Este fichero es trabajo propio de su transcriptor y representa su interpretación personal de la canción. El material contenido en esta página es para exclusivo uso privado, por lo que se prohibe su reproducción o retransmisión, así como su uso para fines comerciales.