Oda A La Alegria (2 Guitarras), Beethoven (tablatura)

Autor: sabre | 43801 visualizaciones

e-------------------------------------------------
b-0-0-1-0-0-1-0---------0-0-----0-0-1-0-0-1-0-----
g-0-----7-7-2-0-2-0-0-2-0-0-2-2-0-0-2-7-7-2-0-2---
d---5-7---------3-0-0-3-----3-3---------------3---
a-------------------------------------------------
e-------------------------------------------------

e-------------------------------------------------
b-----0-1-0---------0-----0-1-0-----0-1-0---------
g-2-2---0---0-0-2-2-0-2-2-0-2-0-0-2-------2-0-2---
d-2-2-3-----0-----3---0-3-------0-3-0-2-3-3-2-3-0-
a---------3-----8---------------------------------
e-------------------------------------------------

e-------------------------------------------------
b-0-0-1-0-0-1-0-1---------0-----------------------
g-0-0-2-7-7-2-0-2-2-0-0-2---2-0-0-----------------   (x2)
d-----------------3-0-0-2-3-0-0-------------------
a-------------------------------------------------
e-------------------------------------------------

Comentarios del colaborador: aqui esta mi 3ª transcripcion espero q les guste suena muy bien junto con una flauta o un violin. m.p.m \\SaBrE//

Calificar esta versión:
Aviso: Este fichero es trabajo propio de su transcriptor y representa su interpretación personal de la canción. El material contenido en esta página es para exclusivo uso privado, por lo que se prohibe su reproducción o retransmisión, así como su uso para fines comerciales.