Oda A La Alegria, Beethoven (tablatura)

Autor: sabre | 41414 visualizaciones



e------------------------------------------------
b-------0-0---------------------------0-0--------
g-0---------2-0---------0-0-----0-0-2-----2-0----
d---5-7---------3-0-0-3-----3-3---------------3--
a------------------------------------------------
e------------------------------------------------

e-------------------------------------------------
b-------------------------------------------------
g-------0---0-0-----0-----0-2-0-------------------
d-2-2-3-----------3---0-3-------0-3-0-2-3-3-2-3-0-
a---------3-----8---------------------------------
e-------------------------------------------------

e-------------------------------------------------
b-------0-0---------------------------------------
g-0-0-2-----2-0-2---------------0-----------------(x2)
d-----------------3-0-0-2-3-0-0-------------------
a-------------------------------------------------
e-------------------------------------------------





Comentarios del colaborador: ahora una clasica, otra de mis transcripciones espero que les guste. m.p.m \\\\SaBrE//

Calificar esta versión:
Aviso: Este fichero es trabajo propio de su transcriptor y representa su interpretación personal de la canción. El material contenido en esta página es para exclusivo uso privado, por lo que se prohibe su reproducción o retransmisión, así como su uso para fines comerciales.