Moonlight Para Guitarra Movimiento 1, Beethoven (tablatura)

Autor: nemesis6-6-6 | 40013 visualizaciones

|--3--|  |--3--|  |--3--|  |--3--|   
     E  E  E  E  E  E  E  E  E  E  E  E   
E||--------------------------------------|
B||--------1--------1--------1--------1--|
G||-----2--------2--------2--------2-----|
D||--2--------2--------2--------2--------|
A||--0-----------------------------------|
E||--------------------------------------|


  |--3--|  |--3--|  |--3--|  |--3--|     |--3--|  |--3--|  |--3--|  |--3--|   
  E  E  E  E  E  E  E  E  E  E  E  E     E  E  E  E  E  E  E  E  E  E  E  E   
--------------------------------------|--------------------------------------|
--------1--------1--------1--------1--|--------1--------1--------3--------3--|
-----2--------2--------2--------2-----|-----2--------2--------3--------3-----|
--2--------2--------2--------2--------|--3--------3--------3--------3--------|
--------------------------------------|--------------------5-----------------|
--3--------------------------3--------|--1-----------------------------------|


  |--3--|  |--3--|  |--3--|  |--3--|     |--3--|  |--3--|  |--3--|  |---3---|  
  E  E  E  E  E  E  E  E  E  E  E  E     E  E  E  E  E  E  E  E  E  E  E  S S  
--------------------------------------|-----------------------------0-------0-|
--------3--------1--------0--------0--|-----------------1--------1--------1---|
-----1--------2--------2--------1-----|--------2-----2--------2--------2------|
--2--------2--------2--------0--------|-----2-----2--------2--------2---------|
--------------------------------------|--0------------------------------------|
--0-----------------0-----------------|---------------------------------------|


  |--3--|  |--3--|  |--3--|  |---3---|    |--3--|  |--3--|  |--3--|  |--3--|   
  E  E  E  E  E  E  E  E  E  E  E  S S    E  E  E  E  E  E  E  E  E  E  E  E   
--0--------------------------0-------0-|--0-----------------1-----------------|
--------3--------3--------3--------3---|--------1--------1--------3--------3--|
-----4--------4--------4--------4------|-----2--------2--------2--------2-----|
-----------2--------2--------2---------|-----------2--------0--------3--------|
---------------------------------------|--0-----------------------------------|
--4------------------------------------|--------------------------------------|


  |--3--|  |--3--|  |--3--|  |---3--|     |--3--|  |--3--|  |--3--|  |--3--|   
  E  E  E  E  E  E  E  E  E  E   E  E     E  E  E  E  E  E  E  E  E  E  E  E   
--0--------------------------3---------|--------------------------------------|
--------1--------1--3------------------|--1-----1--------1--------1--------1--|
-----0--------0-----------4---------4--|-----0--------0--------0--------0-----|
-----------2-----------5-----3h--5-----|-----------2--------2--------2--------|
---------------------------------------|--3-----------------------------------|
--3-----------------3------------------|--------------------------------------|


  |--3--|  |--3--|  |--3--|  |---3---|    |--3--|  |--3--|  |--3--|  |---3---|  
  E  E  E  E  E  E  E  E  E  E  E  S S    E  E  E  E  E  E  E  E  E  E  E  S S  
---------------------------------------|---------------------------------------|
--------1--------1--------1--4-------4-|--4--------------------------4-------4-|
-----0--------0--------0-----------5---|--------6--------6--------6--------6---|
--1--------1--------1-----------5------|-----5--------5--------5--------5------|
--3--------------------------6---------|-----------6--------6--------6---------|
---------------------------------------|--6------------------------------------|


  |--3--|  |--3--|  |--3--|  |--3--|     |--3--|  |--3--|  |--3--|  |---3--|   
  E  E  E  E  E  E  E  E  E  E  E  E     E  E  E  E  E  E  E  E  E  E  E   E   
--------------------------------------|---------------------------------------|
--4-----------------------1--3-----1--|--3-----------------4--------1---------|
--------5--------5-----2--------2-----|--------3--------3--------2-----0h--2--|
-----6--------6--------------0--------|-----5--------5--------5-----1---------|
--------------------------------------|-----------5--------3------------------|
--4--------3--------2-----------------|--3------------------------------------|


  |--3--|  |--3--|  |--3--|  |--3--|     |--3--|  |--3--|  |--3--|  |--3--|   
  E  E  E  E  E  E  E  E  E  E  E  E     E  E  E  E  E  E  E  E  E  E  E  E   
--------------------------------------|-----------------------------3--------|
--3-----------------3-----------------|--------3--------3--------3--------3--|
--------3--------3--------2--------2--|-----3--------3--------4--------4-----|
-----5--------5--------4--------4-----|--5--------5--------5--------5--------|
-----------5--------5--------5--------|--------------------------------------|
--3-----------------------------------|--3-----------------------------------|


  |--3--|  |--3--|  |--3--|  |--3--|     |--3--|  |--3--|  |--3--|  |--3--|   
  E  E  E  E  E  E  E  E  E  E  E  E     E  E  E  E  E  E  E  E  E  E  E  E   
--4--------------------------2--------|--3--------------------------3--------|
--------4--------4--------4--------4--|--------3--------3--------3--------3--|
-----5--------5--------5--------5-----|-----4--------4--------4--------4-----|
--------------------1-----------------|-----------5--------5--------5--------|
-----------3-----------------3--------|--------------------------------------|
--3-----------------------------------|--3-----------------------------------|


  |--3--|  |--3--|  |--3--|  |--3--|     |--3--|  |--3--|  |--3--|  |---3--|   
  E  E  E  E  E  E  E  E  E  E  E  E     E  E  E  E  E  E  E  E  E  E   E  E   
--4--------------------------2--------|--3-----------------3------------------|
--------4--------4--------4--------4--|--------3--------3--------2---------2--|
-----5--------5--------5--------5-----|-----4--------4--------3-----0h--3-----|
--------------------1-----------------|-----------5--------2------------------|
-----------3-----------------3--------|---------------------------------------|
--3-----------------------------------|--3------------------------------------|


  |--3--|  |---3--|  |--3--|  |--3--|     |--3--|  |--3--|  |--3--|  |--3--|   
  E  E  E  E   E  E  E  E  E  E  E  E     E  E  E  E  E  E  E  E  E  E  E  E   
--3------------------1-----------------|--------------------------------------|
--------5---------5--------3--------3--|--4-----------------3-----------------|
-----2-----0h--2--------2--------2-----|--------3--------3--------4--------4--|
---------------------0--------3--------|-----5--------5--------3--------3-----|
--4------------------------------------|-----------6-----------------5--------|
---------------------------------------|--3-----------------4-----------------|


  |---3--|  |---3--|  |---3--|  |---3--|   
  E   E  E  E   E  E  E   E  E  E   E  E   
------------------------------------------|
------------------------------------------|
--2---------------------------------------|
---------3---------3---------2---------2--|
--0h--5-----0h--5-----0h--5-----0h--4-----|
------------------------------------------|


  |--3--|  |--3--|  |--3--|  |---3---|    |--3--|  |--3--|  |--3--|  |---3---|  
  E  E  E  E  E  E  E  E  E  E  E  S S    E  E  E  E  E  E  E  E  E  E  E  S S  
-----------------------------5-------5-|--5--------------------------5-------5-|
-----------------3--------6--------6---|--------8--------8--------8--------8---|
--------2-----2--------7--------7------|-----6--------6--------6--------6------|
-----3-----3--------7--------7---------|-----------7--------7--------7---------|
--5------------------------------------|---------------------------------------|
---------------------------------------|--5------------------------------------|


  |--3--|  |--3--|  |--3--|  |--3--|     |--3--|  |---3--|  |---3--|  |--3--|   
  E  E  E  E  E  E  E  E  E  E  E  E     E  E  E  E   E  E  E   E  E  E  E  E   
--5-----------------4--------5--------|--7----------------------------7--------|
--------6--------6--------6--------6--|--------5---------5---------5--------5--|
-----7--------7--------7--------7-----|-----7-----4h--7-----4h--7--------7-----|
-----------7--------------------------|----------------------------------------|
--5--------------------------0--------|----------------------------------------|
--------------------5-----------------|--4-------------------------------------|


  |---3--|   |---3--|  |--3--|  |--3--|   
  E  E   E   E  E   E  E  E  E  E  E  E   
--8--------------------7--------5--------|
--------10---------10--------6--------7--|
-----9----------9---------7--------5-----|
------------10---------0-----------------|
--0-----------------------------6--------|
-----------------------------------------|


  |--3--|  |--3--|  |--3--|  |--3--|     |--3--|  |--3--|  |--3--|  |--3--|   
  E  E  E  E  E  E  E  E  E  E  E  E     E  E  E  E  E  E  E  E  E  E  E  E   
--4-----------------------------------|--------------------------------------|
-----------5--------6--------3--------|--------0--------0--------0--------0--|
--------4--------4--------4--------4--|-----1--------1--------1--------1-----|
-----6--------6--------6--------6-----|-----------2--------3--------0--------|
--7-----------------------------------|--------------------------------------|
--------------------------------------|--0-----------------------------------|


  |--3--|  |--3--|  |--3--|  |--3--|     |--3--|  |--3--|  |--3--|  |--3--|   
  E  E  E  E  E  E  E  E  E  E  E  E     E  E  E  E  E  E  E  E  E  E  E  E   
-----------5--------8--------5--------|--------------------------------------|
--------5--------5--------5--------5--|--------------------1-----------------|
-----5--------5--------5--------5-----|-----------2-----------------2--------|
--------------------------------------|--------2--------2--------2--------2--|
--------------------------------------|-----3--------3--------3--------3-----|
--0-----------------------------------|--0-----------------------------------|


  |--3--|  |--3--|  |--3--|  |--3--|     |--3--|  |--3--|  |--3--|  |---3--|   
  E  E  E  E  E  E  E  E  E  E  E  E     E  E  E  E  E  E  E  E  E  E   E  E   
-----------------------------1-----4--|-----------------------5-----8p--5-----|
-----------------------3--------3-----|-----------1-----5--------5---------5--|
-----------1-----4--1-----4-----------|-----2--------2-----5------------------|
-----3--0-----3-----------------------|--------2------------------------------|
--2-----------------------------------|--3------------------------------------|
--0-----------------------------------|--0------------------------------------|


  |--3--|  |---3--|  |---3--|   |---3---|   
  E  E  E  E  E   E  E  E   E   E   E   E   
------------------------8------11------14--|
-----------7-----10--7-----10------13------|
-----8--5-----8----------------------------|
--7----------------------------------------|
-------------------------------------------|
--0----------------------------------------|


  |---3--|  |---3--|   |---3---|   |---3---|   
  E  E   E  E  E   E   E   E   E   E   E   E   
------------7-----10------13------16------19--|
-----9---------9------12------15------18------|
--7-----10------------------------------------|
----------------------------------------------|
----------------------------------------------|
--0-------------------------------------------|


   |---3---|   |---3--|  |---3--|  |---3---|   
   E   E   E   E   E  E  E   E  E  E    E  E   
--16------13------10-----7--------------------|
------15------12------9---------9-------------|
----------------------------10-----7h--10-----|
-------------------------------------------9--|
----------------------------------------------|
---0------------------------------------------|


  |--3--|  |--3--|   |--3--|  |---3--|   
  E  E  E  E  E  E   E  E  E  E  E   E   
----------------------------------------|
----------------------------------------|
--7-----4-----1-------------------------|
-----6-----3-----0h--3-----0-----0h--3--|
------------------------2-----0---------|
--0-------------------------------------|


  |---3--|  |---3--|  |---3--|  |---3--|   
  E  E   E  E   E  E  E  E   E  E  E   E   
------------------------------------------|
------------------------------------------|
--1---------------------------------------|
-----0h--2--3p--2--0-----0h--3-----0h--3--|
----------------------2---------0---------|
--0---------------------------------------|


  |---3--|  |---3--|  |---3--|  |---3--|   
  E  E   E  E   E  E  E  E   E  E  E   E   
------------------------------------------|
------------------------------------------|
--1---------------------------------------|
-----0h--2--3p--2--0-----0h--3-----0h--3--|
----------------------1---------0---------|
--0---------------------------------------|


  |---3--|  |---3--|  |--3--|  |---3--|   
  E  E   E  E   E  E  E  E  E  E   E  E   
-----------------------------------------|
-----------------------------------------|
--1-------------------------2---------2--|
-----0h--2--3p--2--0---------------------|
-------------------------3-----0h--3-----|
--0-------------------1------------------|


  |--3--|  |--3--|  |--3--|  |--3--|     |--3--|  |--3--|  |--3--|  |---3---|  
  E  E  E  E  E  E  E  E  E  E  E  E     E  E  E  E  E  E  E  E  E  E  E  S S  
--------------------------------------|-----------------------------0-------0-|
--------------------------------------|-----------------1--------1--------1---|
--------2--------2--------1--------1--|--------2-----2--------2--------2------|
-----0--------3--------2--------0-----|-----2-----2--------2--------2---------|
--2--------2--------2--------2--------|--0------------------------------------|
--------------------0-----------------|---------------------------------------|


  |--3--|  |--3--|  |--3--|  |---3---|    |--3--|  |--3--|  |--3--|  |--3--|   
  E  E  E  E  E  E  E  E  E  E  E  S S    E  E  E  E  E  E  E  E  E  E  E  E   
--0--------------------------0-------0-|--0-----------------1-----------------|
--------3--------3--------3--------3---|--------1--------1--------3--------3--|
-----4--------4--------4--------4------|-----2--------2--------2--------2-----|
-----------2--------2--------2---------|-----------2--------0--------3--------|
---------------------------------------|--0-----------------------------------|
--4------------------------------------|--------------------------------------|


  |--3--|  |--3--|  |---3--|  |---3--|   
  E  E  E  E  E  E  E   E  E  E   E  E   
--0---------------------------3---------|
--------1--------1--3-------------------|
-----0--------0------------4---------4--|
-----------2--------3h--5-----3h--5-----|
----------------------------------------|
--3-----------------3-------------------|


  |--3--|  |--3--|  |--3--|  |---3---|    |--3--|  |--3--|  |--3--|  |---3---|  
  E  E  E  E  E  E  E  E  E  E  E  S S    E  E  E  E  E  E  E  E  E  E  E  S S  
-----------------0--------0--3-------3-|--3--------------------------3-------3-|
--1-----------1--------1-----------5---|--------6--------6--------6--------6---|
--------0--0--------0-----------5------|-----4--------4--------4--------4------|
-----2-----------------------5---------|-----------5--------5--------5---------|
--3------------------------------------|---------------------------------------|
---------------------------------------|--3------------------------------------|


  |--3--|  |--3--|  |--3--|  |--3--|   
  E  E  E  E  E  E  E  E  E  E  E  E   
--3-----------------4--------5--------|
--------5--------5--------5--------5--|
-----5--------5--------7--------5-----|
-----------5--------------------------|
--3--------------------------0--------|
--------------------7-----------------|


  |--3--|  |---3--|  |---3--|   |---3--|   
  E  E  E  E   E  E  E  E   E   E  E   E   
--7------------------8--------------------|
--------5---------5--------10---------10--|
-----7-----4h--7--------9----------9------|
-------------------------------10---------|
------------------------------------------|
--4---------------------------------------|


  |--3--|  |--3--|  |--3--|  |--3--|     |--3--|  |--3--|  |--3--|  |--3--|   
  E  E  E  E  E  E  E  E  E  E  E  E     E  E  E  E  E  E  E  E  E  E  E  E   
--6-----------------4-----------------|--5--------------------------5--------|
--------6--------6--------5--------5--|--------5--------5--------5--------5--|
-----7--------7--------7--------7-----|-----5--------5--------6--------6-----|
--0--------8-----------------6--------|-----------7--------7--------7--------|
--------------------------------------|--0-----------------------------------|
--------------------0-----------------|--------------------------------------|


  |--3--|  |--3--|  |--3--|  |--3--|     |--3--|  |--3--|  |--3--|  |--3--|   
  E  E  E  E  E  E  E  E  E  E  E  E     E  E  E  E  E  E  E  E  E  E  E  E   
--6--------------------------4--------|--5--------------------------5--------|
--------6--------6--------6--------6--|--------5--------5--------5--------5--|
-----7--------7--------7--------7-----|-----6--------6--------6--------6-----|
-----------0-----------------0--------|-----------7--------7--------7--------|
--0-----------------8-----------------|--0-----------------------------------|
--------------------------------------|--------------------------------------|


  |--3--|  |--3--|  |--3--|  |--3--|     |--3--|  |--3--|  |--3--|  |--3--|   
  E  E  E  E  E  E  E  E  E  E  E  E     E  E  E  E  E  E  E  E  E  E  E  E   
--6--------------------------4--------|--5-----------------5-----------------|
--------6--------6--------6--------6--|--------5--------5--------6--------6--|
-----7--------7--------7--------7-----|-----6--------6--------7--------7-----|
-----------0-----------------0--------|-----------7-----------------7--------|
--0-----------------8-----------------|--------------------5-----------------|
--------------------------------------|--5-----------------------------------|


  |--3--|  |--3--|  |--3--|  |--3--|     |--3--|  |--3--|  |--3--|  |--3--|   
  E  E  E  E  E  E  E  E  E  E  E  E     E  E  E  E  E  E  E  E  E  E  E  E   
--3--------------------------3--------|--------0--1--------0-----------------|
--------6--------6--------6--------5--|--6--------------3--------3--5--------|
-----4--------4--------4--------5-----|-----5--------4--------4-----------5--|
-----------5--------5-----------------|--------------------------------7-----|
-----------------------------3--------|--0--------2-----------------0--------|
--3-----------------------------------|--------------------4-----------------|


  |--3--|  |---3--|  |--3--|  |--3--|     |--3--|  |--3--|  |--3--|  |--3--|   
  E  E  E  E   E  E  E  E  E  E  E  E     E  E  E  E  E  E  E  E  E  E  E  E   
---------------------0--------1--------|--0-----------------0-----------------|
---------------------------0--------0--|--------1--------1--------0--------0--|
--7---------------------2--------2-----|-----2--------2--------1--------1-----|
-----7--9--0h--7--9--2--------0--------|--2--------2--------2--------0--------|
--8------------------------------------|--------------------------------------|
---------------------------------------|--0-----------------0-----------------|


  |--3--|  |--3--|  |--3--|  |---3---|    |--3--|  |--3--|  |--3--|  |---3---|  
  E  E  E  E  E  E  E  E  E  E  E  S S    E  E  E  E  E  E  E  E  E  E  E  S S  
---------------------------------------|---------------------------------------|
-----------------1--------1--------1---|--------3--------3--------3--------3---|
--2-----2-----2--------2--------2------|-----4--------4--------4--------4------|
-----2-----2--------2--------2---------|--2--------2--------2--------2---------|
--0------------------------------------|---------------------------------------|
-----------------------------0-------0-|--4--------------------------0-------0-|


  |--3--|  |--3--|  |---3--|   |----3---|  
  E  E  E  E  E  E  E  E   E   E  E   S S  
-----------------5--0--8------12--8-------|
-----1-----5--------------10---------10---|
--------2-----5---------------------------|
--2---------------------------------------|
--0---------------------------------------|
-------------------------------0--------0-|


  |---3--|  |---3--|  |--3--|  |---3---|  
  E  E   E  E  E   E  E  E  E  E  E  S S  
-----7-----------------------------------|
--9---------9------------3---------------|
--------10-----7--10--4--------1---------|
----------------------------3-----2--0---|
-----------------------------------------|
--0----------------------------0-------0-|


  |--3--|  |--3--|  |---3--|   |----3---|  
  E  E  E  E  E  E  E  E   E   E  E   S S  
-----------------5--0--8------12--8-------|
-----1-----5--------------10---------10---|
--2-----2-----5---------------------------|
--2---------------------------------------|
--0---------------------------------------|
-------------------------------0--------0-|


  |---3--|  |---3--|  |--3--|  |---3---|  
  E  E   E  E  E   E  E  E  E  E  E  S S  
-----7-----------------------------------|
--9---------9------------3---------------|
--------10-----7--10--4--------1---------|
----------------------------3-----2--0---|
-----------------------------------------|
--0----------------------------0-------0-|


  |---3--|  |---3--|  |--3--|  |--3--|     |--3--|  |--3--|  |--3--|  |--3--|   
  E  E   E  E   E  E  E  E  E  E  E  E     E  E  E  E  E  E  E  E  E  E  E  E   
-----0------8------------------5--------|-----------0--------------------------|
--------10-----10-----------5-----5-----|--------1-----1-----------------------|
--2----------------9-----5-----------5--|-----2-----------2-----2--------------|
--2-------------------7-----------------|--2-----------------2-----2-----2-----|
--0-------------------------------------|-----------------------------3-----3--|
----------------------------------------|--------------------------------------|


  H         H            W                                      
---------------------|--------------------|-------------------||
-----------10--------|--10----------------|-------------------||
------------9--------|---9----------------|-------------------||
-----------10--------|--10----------------|-------------------||
--0------------------|--------------------|-------------------||
---------------------|--------------------|-------------------||

Comentarios del colaborador: nemesis6-6-6@hotmail.com

Calificar esta versión:
Aviso: Este fichero es trabajo propio de su transcriptor y representa su interpretación personal de la canción. El material contenido en esta página es para exclusivo uso privado, por lo que se prohibe su reproducción o retransmisión, así como su uso para fines comerciales.