Moon Lingth Sonata (soneto Claro De Luna), Beethoven (tablatura)

Autor: rana619 | 17027 visualizaciones

SONETO CLARO DE LUNA
(MOON LIGHT SONATA)

1-------------0---------0------0------0-----
2--------2-----------2------2------2--------
3----1------------1------1------1-----------
4-------------------------------------------
5----4--------------------------------------
6-------------------------------------------

1----------0---------0--------0--------0----
2-------2---------2--------2--------2-------
3----1---------1--------1--------1----------
4-------------------------------------------
5----2--------------------------------------
6-------------------------------------------

1----------0---------0--------2---------2---
2-------2---------2--------3---------3------
3----2---------2--------2--------2----------
4-------------------------------------------
5----0------------------2-------------------
6-------------------------------------------



1-------------------------------------------
2----------7--------5--------4--------4-----
3-------5--------6--------6--------5--------
4----4--------6--------6--------4-----------
5-------------------------------------------
6----6--------------------------------------

1-------------------------------------------
2----2--------------------------------------
3---------------------------------1-----1---
4--------------------2---------2-----2------
5-----------4-----4---------4-----4---------
6----0---4-----4---------4------------------

1-------------------------------------------
2-------------------------------------------
3----1--------------------------1--------1--
4-------1--4-----1--4-----1--4-----1--4-----
5----3--------3--------3--------3-----------
6-------------------------------------------

1-------------------------------------------
2-------------------------------------------
3----4-----1----------1--2------------------
4-------2----------2-----------4---------4--
5----1----------4--------0--4-----0---4-----
6-------------------------------------------

1-------------------------------------------
2--------------------------------0----------
3----1-----1--------1-----------------------
4-------2--------2-----4-----1----------1---
5----2--------2--------0--2----------2------
6-------------------------------------------


1-------------------------------------------
2-------------------------------------------
3-------------------------------------------
4----2--------------2--------2--------2-----
5----------2-----2--------2--------2--------
6----0--4-----4--------4--------4----------- 

1-------------------------------------------
2-------------------------------------------
3--------------------------------0--------0-
4----------2---------2--------2--------0----
5-------2---------2--------2--------2-------
6----3---------3--------3--------3----------

1-------------------------------------------
2-------------------------------------------
3----0--------------------------0--------0--
4----------3--------3--------3--------3-----
5-------2--------2--------2--------2--------
6----3--------3--------3--------3-----------

1-------------------------------------------
2-------------------------------------------
3----0--------------------------------------
4----------2--------2--------2--4-----2-----
5-------3--------2--------4--------4--------
6----3--------3--------3--------2-----------

1-------------------------------------------
2----------3--------3-----------------------
3-------4--------4----0---------------------
4----4--------4-------------2--2-----2------
5----2-------------------2--------2---------
6---------------------0---------------------

1-------------------------------------------
2----------3--------3--------2--------2-----
3-------4--------4--------4--------3--------
4----4--------4--------4--------4-----------
5----2--------------------------------------
6----------------------2--------------------

1-------------------------------------------
2-------------------------------0-----------
3-------------------------------------------
4----------4--------4--------4--------4-----
5-------5--------5--------6--------6--------
6----7--------7--------7--------7-----------

1-------------------------------------------
2----1--------------------------------------
3----------0-----0-----0-----0--3-----3-----
4-------2-----2-----2-----2--------2--------
5----2-----------------3--------------------
6-------------0-----------------0-----------

1-------------------------------------------
2-------------------------------------------
3------------------------------0------------
4---------4--------4--------4--------4------
5------6--------6--------6--------6---------
6---7--------7--------7--------7------------

1-------------------------------------------
2---1---------------------------------------
3---------0-----0-----0-----0--3-----3------
4------2-----2-----2-----2--------2---------
5---2---------------------------------------
6------------0--------3--------0------------

1-------------------------------------------
2---0--------0---------0--------------------
3-------------------------------------------
4---------4---------4-----------------------
5------6---------6--------------------------
6---7------------------7--------------------

Comentarios del colaborador: esta muy buena esta cancion fuente: la cuerda . net

Calificar esta versión:
Aviso: Este fichero es trabajo propio de su transcriptor y representa su interpretación personal de la canción. El material contenido en esta página es para exclusivo uso privado, por lo que se prohibe su reproducción o retransmisión, así como su uso para fines comerciales.