Full Elisa, Beethoven (tablatura)

Autor: culos | 34481 visualizaciones

|---12--11--12--11--12------10--8------|
|-----------------------12---------10--|
|--------------------------------------|
|--------------------------------------|
|--------------------------------------|
|--------------------------------------|


|--------------------------------------|
|-----9--10--12------9--12--13---------|
|--9--------------9--------------------|
|--------------------------------------|
|--------------------------------------|
|--------------------------------------|


|--------------------------------------|
|---12--11--12--11--12------10--8------|
|-----------------------12---------10--|
|--------------------------------------|
|--------------------------------------|
|--------------------------------------|


|--------------------------------------|
|-----9--10--12------9--12--10---------|
|--9--------------9--------------------|
|--------------------------------------|
|--------------------------------------|
|--------------------------------------|

|---8--10--12------13--12--10-------12--10--8---|
|-----------------------------------------------|
|--9-------------9----------------9-------------|
|-----------------------------------------------|
|-----------------------------------------------|
|-----------------------------------------------|

|-----10--8------|
|------------12--|
|--9-------------|  Ahi vuelve a empezar desde el principio.
|----------------|
|----------------|
|----------------|
Calificar esta versión:
Aviso: Este fichero es trabajo propio de su transcriptor y representa su interpretación personal de la canción. El material contenido en esta página es para exclusivo uso privado, por lo que se prohibe su reproducción o retransmisión, así como su uso para fines comerciales.