Fifth Symphony, Beethoven (acordes)

Autor: chop0n | 44685 visualizaciones

(G)              (Cm)          (F7)           
                     v                        
      (E)  (E)  (E)  (E)     H           (E)  (E)  (E)  (E)   
E||------3--3--3--|-----------|-----1--1--1--|
B||------3--3--3--|--4--------|--L--1--1--1--|
G||*-----4--4--4--|--5--------|--L--2--2--2--|
D||*-----5--5--5--|--5--------|--L--3--3--3--|
A||------5--5--5--|--3--------|--L-----------|
E||------3--3--3--|-----------|--------------|


  (D)                       (Cm)                          
  v                                                   
  H           H           (E)  (E)  (E)  (E)     (E)  (E)  (E)  (E)   
-----------|-----------|--------------|--------------|
--3--------|--L--------|--L--8--8--8--|-----9--9--9--|
--2--------|--L--------|--L--8--8--8--|--8-----------|
--0--------|--L--------|--L-----------|--------------|
-----------|-----------|--------------|--------------|
-----------|-----------|-----8--8--8--|--8-----------|


                     (Cm)                       
                     v                        
  (E)   (E)   (E)   (E)      H           (E)  (E)  (E)  (E)   
-----11--11--11--|---8--------|--------------|
--8--------------|---8--------|--------------|
-----------------|---8--------|-----0--0--0--|
-----------------|--10--------|--------------|
-----------------|--10--------|--3-----------|
--8--------------|---8--------|--------------|


                 (G7)             (G)         
                                v         
  (E)  (E)  (E)  (E)     (E)  (E)  (E)  (E)     H         
--------------|-----1--1--1--|-----------|
--------------|--------------|--3--------|
-----1--1--1--|--0-----------|--0--------|
--0-----------|--------------|--0--------|
--3-----------|--2-----------|--2--------|
--------------|--------------|-----------|


           (G7)    (Cm)             (G)            
  (E)  (E)  (E)  (E)     (E)  (E)  (E)  (E)     (E)  (E)  (E)  (E)   
-----3--3-----|--------------|-----3--3-----|
--L--------6--|--4-----------|-----3--3--6--|
--L-----------|--5-----------|-----4--4--4--|
--L-----------|--5--------3--|--5--5--5--3--|
--L-----------|--3--6--6-----|-----5--5--5--|
--------------|--------------|--------------|


  (Cm)             (G)              (Cm)         
                                v          
  (E)  (E)  (E)  (E)     (E)  (E)  (E)  (E)     Q    Q     
--------------|-----3--3-----|--3---------|
--4-----------|-----3--3--6--|--4---------|
--5-----------|-----4--4--4--|--5---------|
--5--------3--|--5--5--5--3--|--5---------|
--3--6--6-----|-----5--5--5--|--3---------|
--------------|--------------|------------|


  (D7)           (G)            Ab             (F7)        
  v            v                           v         
  Q    Q       Q    Q       (E)  (E)  (E)  (E)     H         
------------|--3---------|-----4--4--4--|--1--------|
--1---------|--3---------|-----4--4--4--|--1--------|
--2---------|--4---------|-----5--5--5--|--2--------|
--0---------|--5---------|-----6--6--6--|--1--------|
------------|--5---------|-----6--6--6--|--3--------|
------------|--3---------|-----4--4--4--|--1--------|


                 Ab          (Fm7)           
  H           (E)  (E)  (E)  (E)     (E)   (E)  (E)  (E)   
--L--------|--------------|---------------|
--L--------|--------------|---------------|
--L--------|-----1--1--1--|---------------|
--L--------|-----1--1--1--|--3---0--0--0--|
--L--------|-----3--3--3--|---------------|
--L--------|-----4--4--4--|--1------------|


                                   Ab        
  (E)  (E)  (E)  (E)     (E)  (E)  (E)  (E)     (E)  (E)  (E)  (E)   
--------------|--------------|--------------|
--------------|--------------|--------------|
--------------|--------------|-----1--1--1--|
--------------|--------------|--1--1--1--1--|
--2-----------|--------------|--3--3--3--3--|
-----4--4--4--|--3--3--3--3--|-----4--4--4--|


  (Fm7)                            (G7)           
  (E)   (E)  (E)  (E)     (E)  (E)  (E)  (E)     (E)  (E)  (E)  (E)   
---------------|--------------|--------------|
---------------|--------------|-----6--6--6--|
---------------|--------------|-----4--4--4--|
--3---0--0--0--|--------------|-----3--3--3--|
---------------|--2-----------|-----5--5--5--|
--1------------|-----4--4--4--|--4--3--3--3--|


  (Cm)             (Fm)                          
  (E)  (E)  (E)  (E)     (E)  (E)  (E)  (E)     (E)  (E)  (E)  (E)   
--3-----------|--1-----------|--------------|
--4-----------|--1-----------|-----------3--|
--5-----5--5--|--1-----------|--4--4--4-----|
--5--5--------|--3-----------|--------------|
--3-----------|--3--3--3--3--|--3-----------|
--------------|--1-----------|--------------|


  (Cm)             (Cm)                          
  (E)  (E)  (E)  (E)     (E)  (E)  (E)  (E)     (E)  (E)  (E)  (E)   
--------------|--------------|--------------|
--------------|-----------4--|--4--3--3--6--|
--------------|--5--5--5-----|--4-----------|
--------------|--------------|--3-----------|
-----3--3--3--|--3-----------|--3-----------|
--3-----------|--------------|--------------|


  (Cm)                                          
  (E)  (E)  (E)  (E)     (E)  (E)  (E)  (E)     (E)  (E)  (E)   (E)   
-----------3--|--3--------4--|---------------|
--6--5--5-----|-----6--6-----|--9--8--8--11--|
--3-----------|--3-----------|--9------------|
--5-----------|--5-----------|--8------------|
--3-----------|--3-----------|---------------|
--------------|--------------|--8------------|


   (Fsus4)                               
   (E)     (E)   (E)  (E)      (E)   (E)   (E)   (E)   
----------------8--|---8----------10--|
--11----10--10-----|---9--12--12------|
--10---------------|--10--------------|
--10---------------|------------------|
-------------------|------------------|
---8---------------|---8--------------|


  (C)                                             
  (E)   (E)   (E)  (E)     (E)  (E)  (E)  (E)     (E)   (E)  (E)  (E)   
--8--11--11--8--|--8-----------|---------------|
--8-------------|-----8--8--8--|---------------|
--9-------------|--------------|--8------0--0--|
----------------|--------------|-----10--------|
----------------|--------------|---------------|
--8-------------|--8-----------|--8------------|


                 (G)                              
  (E)  (E)  (E)  (E)     (E)   (E)   (E)   (E)     (E)  (E)  (E)  (E)   
--------------|-----13--10--10--|--7-----------|
--------------|-----------------|-----8--6--6--|
--------------|-----------------|--------------|
--1-----------|--0--------------|--0-----------|
--3--3--3--3--|--2--------------|--------------|
--------------|--3--------------|--------------|


  (E)  (E)  (E)  (E)     (E)  (E)   (E)   (E)      (E)   (E)   (E)   (E)   
--------------|----------------|------11--11--11--|
-----0--------|----------------|------------------|
--7-----0-----|----------------|------------------|
-----------3--|--0--0----------|------------------|
--------------|----------------|------------------|
--------------|--------11--11--|--11--------------|


  (E)   (E)   (E)   (E)     (E)  (E)  (E)  (E)     (E)  (E)  (E)  (E)   
--8--------------|--------------|-----5--5--5--|
-----10--10--10--|--7-----------|-----7--7--7--|
--8--------------|-----8--8--8--|-----5--5--5--|
-----------------|--------------|--------------|
-----------------|--6-----------|--6-----------|
--8--------------|--------------|--------------|


                           (A#)              (Eb)        
  v                        v                         
  Q    Q       H           Q    Q       (E)  (E)  (E)  (E)   
--5---------|-----------|--6---------|--------------|
--7---------|-----------|--6---------|--------------|
--5---------|-----------|--7---------|-----3--3--3--|
------------|-----------|--8---------|--------------|
------------|-----------|--8---------|--------------|
------------|-----------|--6---------|--------------|


  H           H           H           Q    Q     
-----------|-----------|-----------|------------|
-----------|-----------|-----------|------------|
-----------|-----------|-----------|-------8----|
--1--------|--3--------|-----------|--8---------|
-----------|-----------|--1--------|--6---------|
-----------|-----------|-----------|------------|


  Q    Q       (E)  (E)  (E)  (E)     Q    Q       Q    Q     
------------|--------------|------------|------------|
------------|--6-----------|------------|------------|
--7----8----|--------5-----|--5---------|-------8----|
------------|--------------|-------8----|--8---------|
------------|--------------|--6---------|--6---------|
--6---------|-----6--6--6--|------------|------------|


  Q    Q       (E)  (E)  (E)  (E)     Q    Q     
------------|--------------|------------|
------------|--6-----------|------------|
--7----8----|--------5-----|--5---------|
------------|--------------|-------8----|
------------|--------------|--6---------|
--6---------|-----6--6--6--|------------|


   (C) XIII          (C) XIII                          
   Q      Q        Q      Q        (E)   (E)   (E)   (E)   
---------------|---------------|--13--------------|
---------16----|--15-----16----|----------15------|
--15-----------|---------------|------------------|
---------------|---------------|------------------|
--13-----------|--13-----------|--13--13--13--13--|
---------------|---------------|------------------|


   Q     Q       Q    Q       Q    Q     
--------------|------------|------------|
--13----------|------------|--2----1----|
--------15----|--3----5----|------------|
--13----------|--5---------|--2---------|
--------------|------------|------------|
--------------|------------|------------|


  (C) I                          (C) IV                    
  (C7)                                                   
  (E)   (E)  (E)  (E)     Q    Q       Q    Q       Q    Q     
---------------|------------|------------|------------|
---------1-----|------------|-------4----|--6----4----|
--3------------|--3----1----|--6---------|------------|
---------------|--3---------|--6---------|--5---------|
------3--3--3--|------------|------------|------------|
---------------|------------|------------|------------|


  (E)  (E)  (E)  (E)     Q    Q       Q    Q     
--------------|------------|------------|
--------4-----|------------|--4----6----|
--6-----------|--6----5----|------------|
--------------|--6---------|--6---------|
-----6--6--6--|------------|------------|
--------------|------------|------------|


                              (C) VI           
  (E)  (E)  (E)  (E)     Q    Q       (E)    (E)  (E)  (E)   
--------------|------------|----------------|
--7-----6-----|-------6----|--7-------6-----|
--------------|--8---------|----------------|
--------------|------------|----------------|
-----0--0--0--|--0---------|----------------|
--------------|------------|-------6--6--6--|


               (C) VII                          
  Q    Q       (E)     (E)   (E)  (E)     Q     Q     
------------|------------------|-------------|
-------6----|--7---------------|-------------|
--8---------|-----------10-----|--8----10----|
------------|------------------|-------------|
------------|------------------|-------------|
--6---------|--------7---7--7--|--7----------|


   (C) VIII                                          
   (E)     (E)   (E)  (E)     Q     Q        (E)  (E)   (E)  (E)   
-------------------|-------------|----------------|
-------------------|-------------|----------------|
--11--------10-----|--8----10----|--11-----10-----|
-------------------|-------------|----------------|
-------------------|-------------|----------------|
---------8---8--8--|--8----------|------8---8--8--|


                  (Bb)                        
                  v                         
   Q     (E)  (E)     H           (E)  (E)   (E)  (E)   
---------------|--6--------|-----8---------|
--------10-----|--6--------|--------11--9--|
--11-----------|--7--------|---------------|
---------------|--8--------|--0------0-----|
---------------|--8--------|---------------|
---8-----8--8--|--6--------|---------------|


  (C) VI                            (C) III           
  (E)    (E)  (E)  (E)     (E)  (E)  (E)  (E)     (E)     (E)  (E)  (E)   
----------------|--------------|-----------------|
--9----8--6-----|--4--3--1--3--|--6p----4--------|
-------------8--|--------------|-----------3-----|
----------------|--------------|--------------5--|
--6-------------|--------------|-----------------|
----------------|--1-----------|--3--------------|


  (C) III                      (C) I                 
  (E)     (E)  (E)  (E)     (E)  (E)  (E)  (E)      (E)  (E)  (E)  (E)   
-----------------|---------------|-----5--6--5--|
--3--------------|---------------|--------------|
--------5--------|--5------------|--------------|
-----------6--3--|-----8--5------|--------------|
-----------------|-----------6---|--------------|
--4--------------|--6------------|--6-----------|


  (E)  (E)  (E)  (E)     (E)  (E)  (E)  (E)     (E)  (E)  (E)  (E)   
--6--5--6--5--|--6--8--6--5--|--4--3--1-----|
--------------|--------------|-----------4--|
--------------|--------------|--------0-----|
--0-----3-----|--0-----------|--1-----------|
--------------|--------8-----|--------------|
--------------|--------------|--------------|


                 (C) III             (C) III           
  (Fm)                                               
  (E)  (E)  (E)  (E)     (E)     (E)  (E)  (E)     (E)     (E)  (E)  (E)   
--------------|-----------------|-----------------|
--4--3--1--3--|--6p----4--------|--3--------------|
--------1-----|-----------3-----|--------5--------|
--3-----------|--------------5--|-----------6--3--|
--------------|-----------------|-----------3-----|
--------------|--3--------6-----|--4--------------|


  (C) I                                             
                                  (Eb)              
                        v         v               
  (E)   (E)  (E)  (E)     (E)  (E)  (E)  (E)      (E)   (E)   (E)   (E)   
---------------|--------6--6--|------15--15--15--|
--1------------|--------6-----|------------------|
------3--0-----|--------7-----|------------------|
------------1--|-----8--8-----|--13--------------|
--1------1-----|--------------|--13--------------|
---------------|--6-----------|--11--------------|


   (E)   (E)   (E)   (E)      (E)   (E)   (E)   (E)   
--11--------------|------------------|
------11--11--11--|------------------|
------------------|--12--------------|
------------------|------13--13--13--|
------------------|------------------|
------------------|------------------|


                      v               
   (E)   (E)   (E)   (E)      (E)   (E)   (E)   (E)   
------------------|------15--15--15--|
------------------|------------------|
------------------|--12--------------|
------15--15--15--|--13--------------|
--13--------------|------------------|
------------------|------------------|


                                           (Bb)        
                                           ^  v  ^   
   (E)   (E)   (E)   (E)      (E)   (E)   (E)   (E)     (E)  (E)  (E)  (E)   
--11--------------|------------------|-----6--6--6--|
------11--11--11--|------------------|-----6--6--6--|
------------------|--12--------------|-----7--7--7--|
------------------|------13--13--13--|-----8--8--8--|
------------------|------------------|-----8--8--8--|
------------------|------------------|--6--6--6--6--|


  Ebm             (Bb)          Ebm        
  v               ^  v  ^     v          
  Q    Q       (E)  (E)  (E)  (E)     Q    Q     
--6---------|-----6--6--6--|--6---------|
--7---------|-----6--6--6--|--7---------|
--8---------|-----7--7--7--|--8---------|
--8---------|-----8--8--8--|--8---------|
--6---------|-----8--8--8--|--6---------|
--6---------|-----6--6--6--|--6---------|


      (Bb)             (Eb)                       
      ^   v   v      v                        
  (E)   (E)   (E)   (E)      Q    Q       H         3x
-----10--10--10--|--11---------|------------||
-----11--11--11--|--11---------|------------||
-----10--10--10--|--12---------|-----------*||
-----12--12--12--|--13---------|-----------*||
-----13--13--13--|--13---------|------------||
-----------------|--11---------|------------||

Comentarios del colaborador: hola espero les guste si les sirve esta tablatura porfavor suscribanse a mi canal de youtube mrbeatlemaniako

Calificar esta versión:
Aviso: Este fichero es trabajo propio de su transcriptor y representa su interpretación personal de la canción. El material contenido en esta página es para exclusivo uso privado, por lo que se prohibe su reproducción o retransmisión, así como su uso para fines comerciales.