El Lago De Los Cisnes, Beethoven (bajo)

Autor: supergitar | 21042 visualizaciones

G||--0-----------------|--0-----------------|--0-----------------|
D||--2-----------------|--2-----------------|--2-----------------|
A||--14----------------|--14----------------|--14----------------|
E||--------------------|--------------------|--------------------|


                                                               
--0-----------------|--0-----------------|--0-----------------|
--2-----------------|--2-----------------|--2-----------------|
--14----------------|--14----------------|--14----------------|
--------------------|--------------------|--------------------|


                                                              
--0-----------------|--0-----------------|--2----------------|
--2-----------------|--2-----------------|--0----------------|
--14----------------|--14----------------|--9----------------|
--------------------|--------------------|-------------------|


                                                              
--4--------0---------|--2----------------|-------------------|
--0--------2---------|--2----------------|--4----------------|
--9--------14--------|--3----------------|-------------------|
---------------------|-------------------|-------------------|


                                                              
--2----------------|--4--------0---------|--2----------------|
--0----------------|--0--------2---------|--2----------------|
--9----------------|--9--------14--------|--3----------------|
-------------------|---------------------|-------------------|


                                                               
--2----------------|--------------------||--0-----------------|
--3----------------|--4----------------*||--2-----------------|
--3----------------|-------------------*||--14----------------|
-------------------|--------------------||--------------------|


                                                               
--0-----------------|--0-----------------|--0-----------------|
--2-----------------|--2-----------------|--2-----------------|
--14----------------|--14----------------|--14----------------|
--------------------|--------------------|--------------------|


                                                               
--0-----------------|--0-----------------|--0-----------------|
--2-----------------|--2-----------------|--2-----------------|
--14----------------|--14----------------|--14----------------|
--------------------|--------------------|--------------------|


                                                                
--0-----------------|--0-----------------|--0-----------------||
--2-----------------|--2-----------------|--2-----------------||
--14----------------|--14----------------|--14----------------||
--------------------|--------------------|--------------------||
Calificar esta versión:
Aviso: Este fichero es trabajo propio de su transcriptor y representa su interpretación personal de la canción. El material contenido en esta página es para exclusivo uso privado, por lo que se prohibe su reproducción o retransmisión, así como su uso para fines comerciales.