Concierto Para Ellos, Baron Rojo (acordes)

Autor: pochillo | 26279 visualizaciones

dolamimresolsi
INTRO:

   Mim   Re                Mim       Re
4-------------------------------------4-5-7-4-----/
5--7-5-7-5---------------5...-7-5-7-5---------5---/x 2 
6----------7--6--5--3--0------------------------7-/
Mim                                       

Otra vez aquí, sintonízanos, 
                                           
                           Re
ven y enrrollate dice un locutor

              La             Do
Y en la noche suena el heavy rock.

Mim
Después de un café vuelves a fumar

               Re
Luego AC/DC tocarán

              La           Do
Las campanas negras del infierno


Mim        Sol        La   Si 
En cada concierto de rocanrol --4---------------------------
                              --5--------5---------5--------
                              --6----- 7---7--5--7---5--7---

Mim          Sol      La      Si 
Las campanas doblan por Bob Scott--4------------------------
                                 --5-----5---------5--------
                                 --6-- 7----7--5--7--5--7---

Mim                   
Por Janis, Lennon, Allman, Hendrix

Sol            La       Si 
Bolan, Bonham, Brian y Moon--4------------------------------------------------------------
                           --5------2--1--2--3--2--1--2--3-/--2--1--2--3--2--0------------
                           --6-------------------------------------------------3--2--0----

Mim                   
Por Janis, Lennon, Allman, Hendrix

Sol            La       Si 
Bolan, Bonham, Brian y Moon--4------------------------------------------------------------
                           --5------2--1--2--3--2--1--2--3-/--2--1--2--3--2--0------------
                           --6-------------------------------------------------3--2--0----
[Luego sigue todo igual]

Sientes un rumor de un oscuro mar
Duerme alrededor la ciudad
Las sirenas lloran cuídate, no te dejes atrapar.

Pides escuchar tal o cual canción
Whitesnake o Rainbow siempre rock
Las guitarras hablan para ti

En cada concierto de rocanrol
Las campanas doblan por Bob Scott
Por Janis, Lennon, Allman, Hendrix
Bolan, Bonham, Brian y Moon
Por Janis, Lennon, Allman, Hendrix
Bolan, Bonham, Brian y Moon

Solo guitarrero [Mim, Re, La, Do, varias veces]

Mim        Sol      La     Si 
En cada concierto de rocanrol....
Calificar esta versión:
Aviso: Este fichero es trabajo propio de su transcriptor y representa su interpretación personal de la canción. El material contenido en esta página es para exclusivo uso privado, por lo que se prohibe su reproducción o retransmisión, así como su uso para fines comerciales.