Baron Rojo, Baron Rojo (tablatura)

Autor: pochillo | 40096 visualizaciones

intro:

primera guitarra:
          x4        x4
|----------|---------|
|-5-0-10-0-|-5-0-9-0-|
|----------|----------/
segunda guitarra:
(0:15)     x2                                x2
|----------|----------------------------------|
|----------|----------------------------------|
|----------|----------------------------------|
|-9~-------|-7---7-7\6-------------2-2/6------|
|-7~-------|--------------2-2/9-------------2-|
|----------|----------------------------------|

riff principal:
(0:53)
  E            B              E            C     (D)   x2
|---------------------------|--------------------------|
|-5--5--5-----/7----8-7h8-5-|-5--5--5-----/8--7-8p7-8~-|
|---------4-6---------------|---------4-6--------------|
|---------------------------|--------------------------|
|---------------------------|--------------------------|
|---------------------------|--------------------------|

E            F#
Mitico baron donde quedo
A             B
el vuelo fugaz de tu gran avion
C
baron

E                  F#
Fui un heroe audaz del aire fue
A    B
tu pasion
        F#      A
y otro avion te destruyo

(se repite riff principal)

De heroe nacional pasaste a ser
comic en papel, no es un mal final
baron

Y en tu rojo avion vas a volar
sin cesar       E
pues asi no morirás


coro:

segunda guitarra:
|--------------------------------------------------------|
|--------------------------------------------------------|
|--------------------------------------------------------| x2
|--------------------------------------------------------|
|---2------------------------------------------------7---|
|-----5-4-2-4-5-4---------2-4-5-------------5-4---0------|

  A       G#m
Baron, heroe de cuentos
A                  G#m
amo de las nubes señor del viento
  A      G#m
baron, vive sus sueños
A                     G#m
triste y solitario surcando el cielo

  G       A                         E
Baron, tu triste misión no apago tu gloria

(se repite riff principal)

Esa guerra cruel termino
pero sigue aun el mundo en tension
baron

Si vivieras hoy podrias ser
capitan
de una nave espacial


coro:
Baron, heroe de cuentos
amo de las nubes señor del viento
baron, vive sus sueños
triste y solitario surcando el cielo

Baron, tu triste mision no apago tu gloria

(se repite riff principal)

           x2                                x
|----------|----------------------------------|
|----------|----------------------------------|
|----------|----------------------------------|
|-9~-------|-7---7-7\6-------------2-2/6------|
|-7~-------|--------------2-2/9-------------2-|
|----------|----------------------------------|

(despues entra la segunda guitarra)
|----------------------------------|
|----------------------------------|
|-5---5-5\4------------------------| x2
|--------------0-2/7----6-6/9----2-|
|----------------------------------|
|----------------------------------|

          x4        x4
|----------|---------|
|-5-0-10-0-|-5-0-9-0-|
|----------|---------| x2
|----------|---------|
|----------|---------|
|----------|---------|

           x2          x2          x2          x2
|-----------|-----------|-----------|-----------|
|-12-0-15-0-|-10-0-13-0-|-14-0-17-0-|-12-0-16-0-|
|-----------|-----------|-----------|-----------|
|-----------|-----------|-----------|-----------|
|-----------|-----------|-----------|-----------|
|-----------|-----------|-----------|-----------|
           x2          x8
|-----------|-12---16---|
|-16-0-19-0-|-----------|
|-----------|-----------|
|-----------|-----------|
|-----------|-----------|
|-----------|-----------|

coro:
Baron, heroe de cuentos
amo de las nubes señor del viento
baron, vive sus sueños
triste y solitario surcando el cielo

Baron, tu triste mision no apago tu gloria

(se repite riff principal)
Calificar esta versión:
Aviso: Este fichero es trabajo propio de su transcriptor y representa su interpretación personal de la canción. El material contenido en esta página es para exclusivo uso privado, por lo que se prohibe su reproducción o retransmisión, así como su uso para fines comerciales.