Rock Lobster (el Rock De La Langosta), B-52s (tablatura)

Autor: rayado | 45214 visualizaciones



This is my first tab, so bear with me. But, it`s pretty accurate. Enjoy!

----------------------------
----------------------------
---------------------------- Play x8
----------------------------
----------------2-1-2-1--1-- 
0---2---3---2-0-------------



--------------------------------
--------------------------------
-------------------------------- Play x4
--------------------------------
----------------2222222211111111
0000000033333333----------------



--------------------------------
--------------------------------
-------------------------------- 
--------------------------------
--------22221111--------22221111
00003333--------00003333-------- 



--------------------------------
--------------------------------
-------------------------------- 
--------------------------------
----2211----2211----221122112211
0033----0033----0033------------ 


----------------------------
----------------------------
---------------------------- Play x9
----------------------------
----------------2-1-2-1--1-- 
0---2---3---2-0-------------

--------------------------------
-------------------------------- Play x4
--------------------------------
----------------2222222211111111
0000000033333333----------------

--------------------------------
--------------------------------
-------------------------------- 
--------------------------------
--------22221111--------22221111
00003333--------00003333-------- 

--------------------------------
--------------------------------
-------------------------------- 
--------------------------------
----2211----2211----221122112211
0033----0033----0033------------ 

----------------------------
----------------------------
---------------------------- Play x10
----------------------------
----------------2-1-2-1--1-- 
0---2---3---2-0-------------

------------------------------------
------------------------------------
------------------------------------
------------------------------------
4455666666666666666-----------------
-------------------00000-00-00-0000

------------------------------------
------------------------------------
------------------------------------
------------------------------------
6666-----6666-----6--6--6-6-6-6-----
----0000-----0000--0--0--0-0-0-0----


(All 4 lines played on bottom string)
171717171717171716161616161661161515151515151515
141414141414141413131313131313131212121212121212
111111111111111110101010101010109999999988888888
77777777666666665666566656565656


----------------------------
----------------------------
---------------------------- Play x2
----------------------------
----------------2-1-2-1--1-- 
0---2---3---2-0-------------


---------------------------------------------------------------------------
---------------------------------------------------------------------------
---------------------------------------------------------------------------
---------------------------------------------------------------------------
0-3-5-303-0--10-10--0-3-5-303-0--10--0-3-5-303-0--10-10--0-3-5-303-0--10---
---------------------------------------------------------------------------


---------------------------------------------------------------
---------------------------------------------------------------
---------------------------------------------------------------
---------------------------------------------------------------
00000000--------00000000-------00000000--------00000000--------
--------00000000-------00000000--------00000000--------00000000

---------------------------------------------------------------
---------------------------------------------------------------
---------------------------------------------------------------
---------------------------------------------------------------
14141414141414141414141414141414141414141-12-11-11-11--1111-11-11-
---------------------------------------------------------------

(All 2nd to last string)
(Play all through animal noises)
1111xxxx11xxxxxxxx11xxxx11xxxxxxxx11xxxx11xxx14-13-11xxxx11xxxx11
11xxxx11xxxxxxxx11xxxx11xxx14-13-11xxxx11xxxx11 

------------------------------------------
------------------------------------------
------------------------------------------
------------------------------------------
141414141414141414141414141414141414141414
------------------------------------------

----------------------------------------------------
----------------------------------------------------
----------------------------------------------------
----------------------------------------------------
11xxxx11xxxxxxxx11xxxx11xxx14-13-11xxxx11xxx14-13-11
----------------------------------------------------





Calificar esta versión:
Aviso: Este fichero es trabajo propio de su transcriptor y representa su interpretación personal de la canción. El material contenido en esta página es para exclusivo uso privado, por lo que se prohibe su reproducción o retransmisión, así como su uso para fines comerciales.