Aunque Tu No Estes, Azul Antena (acordes)

Autor: MrPACHON20 | 21006 visualizaciones

acsosmegsosm
Intro
e|--------------------------------------------------------------------|
B|--------------------------------------------------------------------|
G|--------------------------------------------------------------------|
D|--6--6--6--6--6----6--6--6--6--6----6--6--6--6--6----6--6--6--6--6--|
A|44-44-44-44-44-4-77-77-77-77-77-7-----------------------------------|
E|----------------------------------55-55-55-55-55-5-44-44-44-44-44-4-|

e|------------------------------------------------------------------------|
B|------------------------------------------------------------------------|
G|------------------------------------------------------------------------|
D|--6--6--6--6--6----6--6--6--6--6----6--6--6--6--6----6--6--6--6/18-18-18|
A|44-44-44-44-44-4-77-77-77-77-77-7-------------------------------18-18-18|
E|----------------------------------55-55-55-55-55-5-44-44-44-44-/16-16-16|

Nota: esta parte se toca igual q la primera parte del intro solo q en lugar
 de punteo se usa un rasgueo hacia abajo.

Cada vez, que te veo
Y te siento por siempre
Y cada vez, que en ti pienso
No se si llorar, en mi mente

C#m   E    A   G#m

C#m                              E
Y aunque tú no estés se que yo tendré tu amor
       A              G#m
Yo tendré tu amor, para siempre
C#m                         E
Y cuando tu corazón necesite de mi amor
        A         G#m
Yo me alejaré para siempre

e|-----------------------------------------------------------------|
B|-8/12---10--9-----9----------------------------------------------|
G|---------------11---11--9------------9--11--11~~--11/13--11--9---|
D|---------------------------11~~--11------------------------------|
A|-----------------------------------------------------------------|
E|-----------------------------------------------------------------|

nota:esta parte de igual manera q al inicio......

Estaré esperando tu esencia por siempre
Y sanaré las heridas que se quedaran en mi mente


C#m                              E
Y aunque tú no estés se que yo tendré tu amor
       A              G#m
Yo tendré tu amor, para siempre
C#m                              E
Y cuando se que yo fui quien te hizo ser así
       A            G#m
Hoy te olvidaré para siempre

Solo no.2
e|------------------------------------------------------------------------
B|5/7-7-7-7-7-7-7-7-7-7-7--9-9-9-9-9-9-9-9-9-9--12-10-9--12-10-9--12-10-9-
G|------------------------------------------------------------------------
D|------------------------------------------------------------------------
A|------------------------------------------------------------------------
E|------------------------------------------------------------------------

e|-----------------------------------------------------------------------
B|----9------------------------------------------------------------------
G|-11---11--9----9--11--11b13--11--9-----9--11--11/13--11--9--11--9------
D|------------11---------------------11------------------------------11--
A|-----------------------------------------------------------------------
E|-----------------------------------------------------------------------

e|-----------------------------------------------
B|--------------9-9-9--10-10-10--12-12-12--9-9-9-
G|-8/11--11-11-----------------------------------
D|-----------------------------------------------
A|-----------------------------------------------
E|-----------------------------------------------

e|------------------------------------------
B|---------9-9-9--10-10-10--12-12-12--9-9-9-
G|11-11-11----------------------------------
D|------------------------------------------
A|------------------------------------------
E|------------------------------------------

e|-----------------------------------------------------------
B|-17-17-17--14-14-14--12-12-12------------------------------
G|------------------------------14-14-14--13-13-13-----------
D|-------------------------------------------------14-14-14--
A|-----------------------------------------------------------
E|-----------------------------------------------------------

e|------------------------------------------------|
B|-8/19-19-19-19-19-19-19--21-21-21-21-21-21-21~~~|
G|------------------------------------------------|
D|------------------------------------------------|
A|------------------------------------------------|
E|------------------------------------------------|

C#m                      E
Y cuando tu corazón necesite de mi amor
          A       G#m           C#m
Yo me alejaré para siempre
Calificar esta versión:
Aviso: Este fichero es trabajo propio de su transcriptor y representa su interpretación personal de la canción. El material contenido en esta página es para exclusivo uso privado, por lo que se prohibe su reproducción o retransmisión, así como su uso para fines comerciales.