Lost My Music, Aya Hirano (tablatura)

Autor: Dark Link Uchiha | 32694 visualizaciones

|------------------------|
|------------------------|
|------------------------|
|------------------------|
|--2-6-7-9-7-6--2-6-7-9--|
|--0-4-5-7-5-4--0-4-5-7--|


|-----------|
|-----------|
|-----------| X2
|-----------|
|--2-6-7-9--|
|--0-4-5-7--|


|-----------------------------|
|-----------------------------|
|-----------------------------|
|------6-4-4---------6---4-4--|
|--2-6-4-2-1-4-7-9-6-4-4-1-2--|
|--0-4-------2-5-7-4---2------|


|--------------------------------|
|--------------------------------|
|--------------------------------|
|------6-4-4---------6---4----4--|
|--2-6-4-2-1-4-7-9-6-4-4-2-2--2--|
|--0-4-------2-5-7-4---2---0-----|


|------------------------|
|------------------------|
|------------------------|
|------------------------|
|--2-6-7-8-9--2-6-7-9-2--|
|--0-4-5-6-7--0-4-5-7-0--|


|-----------|
|-----------|
|-----------| X4
|--------6--|
|--7-9-6-4--|
|--5-7-4----|

ON 4TH TIME PLAY THIS

|-----------|
|-----------|
|-----------|
|--------9--|
|--7-9---7--|
|--5-7------|

|-----------|
|-----------|
|-----------| X2
|-----------|
|--2-6-7-9--|
|--0-4-5-7--|


|-----------------------------|
|-----------------------------|
|-----------------------------|
|------6-4-4---------6---4-4--|
|--2-6-4-2-1-4-7-9-6-4-4-1-2--|
|--0-4-------2-5-7-4---2------|


|--------------------------------|
|--------------------------------|
|--------------------------------|
|------6-4-4---------6---4----4--|
|--2-6-4-2-1-4-7-9-6-4-4-2-2--2--|
|--0-4-------2-5-7-4---2---0-----|


|------------------------|
|------------------------|
|------------------------|
|------------------------|
|--2-6-7-8-9--2-6-7-9-2--|
|--0-4-5-6-7--0-4-5-7-0--|


|-----------|
|-----------|
|-----------| X4
|--------6--|
|--7-9-6-4--|
|--5-7-4----|

ON 4TH TIME PLAY THIS

|-----------|
|-----------|
|-----------|
|--------9--|
|--7-9---7--|
|--5-7------|


|------------------------|
|------------------------|
|------------------------|
|------------------------|
|--2-6-7-9-7-6--2-6-7-9--|
|--0-4-5-7-5-4--0-4-5-7--|


|-----------------------------|
|-----------------------------|
|-----------------------------|
|------6-4-4---------6---4-4--|
|--2-6-4-2-1-4-7-9-6-4-4-1-2--|
|--0-4-------2-5-7-4---2------|


|--------------------------------|
|--------------------------------|
|--------------------------------|
|------6-4-4---------6---4----4--|
|--2-6-4-2-1-4-7-9-6-4-4-2-2--2--|
|--0-4-------2-5-7-4---2---0-----|


|------------------------|
|------------------------|
|------------------------| X2
|------------------------|
|--2-6-7-8-9--2-6-7-9-2--|
|--0-4-5-6-7--0-4-5-7-0--|


|-----------|
|-----------|
|-----------| X8
|--------6--|
|--7-9-6-4--|
|--5-7-4----|

ON 8TH TIME PLAY THIS

|-----------|
|-----------|
|-----------|
|--------9--|
|--7-9---7--|
|--5-7------|







otra cancion de mi anime favorito




linkniwagcn@hotmail.com
Calificar esta versión:
Aviso: Este fichero es trabajo propio de su transcriptor y representa su interpretación personal de la canción. El material contenido en esta página es para exclusivo uso privado, por lo que se prohibe su reproducción o retransmisión, así como su uso para fines comerciales.