Take Me Away, Avril Lavigne (tablatura)

Autor: dunkelvolk | 27223 visualizaciones

Intro  
 
e |-------------------------------------------------| 
B |-------------------------------------------------| 
G |-------0---0-----------------0---0-----0---------| 
D |------------------4---4----2---2-----------4-----| x4 
A |-----2---2------0---0----0----------3------------| 
E |---0----------0--------------------------0-------| 

 Verso1 (Muteando)                                              
                                                                
e |------------------------------------------|                     
B |------------------------------------------|                   
G |-----------7-------2-------5--------------|                    
D |---2-------7--x4---2--x4---5--x2---5------|                   
A |---2--x4---5-------0-------3-------5--x2--|    
E |---0-------------------------------3------| 
            
e |----------------------------------|     
B |----------------------------------|     
G |-----------7-------2-------5------|     
D |---2-------7--x4---2--x8---5--x8--|     
A |---2--x4---5-------0-------3------|      
E |---0------------------------------|     
                                                                  
Coro 
 
e |----------------------------------------------------------| 
B |----------------------------------------------------------| 
G |-----------5-------7---------------5-------7--------------| 
D |---2-------5--x2---7--x8---2-------5--x2---7--x5---7------| 
A |---2--x2---3-------5-------2--x2---3-------5-------7--x3--| 
E |---0-----------------------0-----------------------5------| 
 
 
e |--------------------------------------------------| 
B |--------------------------------------------------| 
G |-----------5-------7---------------5-------7------| 
D |---2-------5--x4---7--x8---2-------5--x4---7--x4--| 
A |---2--x4---3-------5-------2--x4---3-------5------| 
E |---0-----------------------0----------------------| 
 
 
e |-------------------------------------------------| 
B |-------------------------------------------------| 
G |-----------------------------0---0---------------| 
D |-------5---5------4---4----2---2------5----4-----| x3 
A |-----2---2------0---0----0----------3------------| 
E |---0----------0--------------------------0-------| 
 
Verso2 (Muteando)                                              
                                                                
e |------------------------------------------|                     
B |------------------------------------------|                   
G |-----------7-------2-------5--------------|                    
D |---2-------7--x4---2--x4---5--x2---5------|                   
A |---2--x4---5-------0-------3-------5--x2--|                   
E |---0-------------------------------3------|                   
                                                                
e |-----------------------------------|     
B |-----------------------------------|     
G |-----------7-------2-------5-------|     
D |---2-------7--x4---2--x8---5--x16--|     
A |---2--x4---5-------0-------3-------|      
E |---0-------------------------------|  
                                                                          
Coro
 
e |----------------------------------------------------------| 
B |----------------------------------------------------------| 
G |-----------5-------7---------------5-------7--------------| 
D |---2-------5--x2---7--x8---2-------5--x2---7--x5---7------| 
A |---2--x2---3-------5-------2--x2---3-------5-------7--x3--| 
E |---0-----------------------0-----------------------5------| 
 
 
e |--------------------------------------------------| 
B |--------------------------------------------------| 
G |-----------5-------7---------------5-------7------| 
D |---2-------5--x4---7--x8---2-------5--x4---7--x4--| 
A |---2--x4---3-------5-------2--x4---3-------5------| 
E |---0-----------------------0----------------------| 
 
Bridge 
 
e |-----------------------------------------------| 
B |-----------------------------------------------| 
G |---7--------5-----------------5--------7-------| 
D |---7--x12---5--x16---2--------5--x16---7--x14--| 
A |---5--------3--------2--x16---3--------5-------| 
E |---------------------0-------------------------| 

Coro
 
e |----------------------------------------------------------| 
B |----------------------------------------------------------| 
G |-----------5-------7---------------5-------7--------------| 
D |---2-------5--x2---7--x8---2-------5--x2---7--x5---7------| 
A |---2--x2---3-------5-------2--x2---3-------5-------7--x3--| 
E |---0-----------------------0-----------------------5------| 
 
e |---------------------------------------------------------| 
B |---------------------------------------------------------| 
G |----------5-------7---------------5-------5--------------| 
D |---2------5--x4---7- x8---2-------5--x4---5--x5---5------| 
A |---2-x4---3-------5-------2--x4---3-------7-------5--x3--| 
E |---0----------------------0-----------------------7------| 
 
e |----------------------------------| 
B |----------------------------------| 
G |-----------5-------5--------------| 
D |---2-------5--x4---5--x5---5------| x3 
A |---2--x4---3-------7-------5--x3--| 
E |---0-----------------------7------| 
 
e |------------------------------| 
B |------------------------------| 
G |-------------------5----------| 
D |---2-------5-------5--x8---2--|                               A |---2--x4---5--x4---7-------2--| 
E |---0-------3---------------0--| 
 

Calificar esta versión:
Aviso: Este fichero es trabajo propio de su transcriptor y representa su interpretación personal de la canción. El material contenido en esta página es para exclusivo uso privado, por lo que se prohibe su reproducción o retransmisión, así como su uso para fines comerciales.