All Up To You, Aventura (tablatura)

Autor: ragde_cba | 35795 visualizaciones

1- ------------------------------------------------------- 
2- -------------------------------------------------------
3- -----------5------7/8--7--3--------3-------------------
4- -------5------5--------------5-------3-----------------
5- ---3---------------------------------------------------
6- -------------------------------------------------------



1- -----6----11/13--------11/13---11-----------10--11----- 
2- --6---------------11---------------11---13----------13-
3- -------------------------------------------------------
4- -------------------------------------------------------
5- -------------------------------------------------------
6- -------------------------------------------------------


/ = traslado
Calificar esta versión:
Aviso: Este fichero es trabajo propio de su transcriptor y representa su interpretación personal de la canción. El material contenido en esta página es para exclusivo uso privado, por lo que se prohibe su reproducción o retransmisión, así como su uso para fines comerciales.