Afterlife (inicio), Avenged Sevenfold (tablatura)

Autor: xebaaaa | 16435 visualizaciones

------------------------------------------------
-----5-6/10--6-5-6-5-6/11--6-5-6/15--15-17-15-18
------------------------------------------------
------------------------------------------------
------------------------------------------------
------------------------------------------------


----15-17-15-13----15-17-15-13----15-17-15
----------------15-------------15---------
------------------------------------------
------------------------------------------
------------------------------------------
------------------------------------------


----15-17-15-13----15-17-15-13----15-17-15
----------------15-------------15---------
------------------------------------------
------------------------------------------
------------------------------------------
------------------------------------------


---20-22-20-18----20-22-20-18----20-22-20
---------------20-------------20---------
-----------------------------------------
-----------------------------------------
-----------------------------------------
-----------------------------------------


---20-22-20-18----20-22-20-18----20^-----
---------------20-------------20---------
-----------------------------------------
-----------------------------------------
-----------------------------------------
-----------------------------------------
Calificar esta versión:
Aviso: Este fichero es trabajo propio de su transcriptor y representa su interpretación personal de la canción. El material contenido en esta página es para exclusivo uso privado, por lo que se prohibe su reproducción o retransmisión, así como su uso para fines comerciales.