Shiva, Austin Tv (bajo)

Autor: hendrix/Slash/ Santana/Van Halen.. | 25144 visualizaciones

Intro
G|------------------------------------|
D|---9-8-----5h7----------------------|
A|7-----7--5----55555-7~-7777-777-7-7-|
E|------------------------------------|

(0.12)
G|------------------------------------|
D|------------------------------------|
A|-7~-----5~-----3~-----5~---7h9-7h9--|
E|------------------------------------|

(0.22)
G|------------------------------------|
D|-----7h9~-7-------------------------|
A|--7~---------5~--553~--35~—--57~----|
E|----------------------------7-------|
Continuación:
(0.32-33)
G|------------------------|
D|-----------57-----------|
A|-7h8-5~--57----3~--35~--|
E|------------------------|

G|------------------------------------|
D|------------------------------------|
A|-5555-4-5-7777-6-7-99-10-8-77-55----|
E|------------------------------------|

(0.51)
G|------------------------------------|
D|---------------------7h9---5h7------|
A|-77--55--33----7/0------------------|
E|------------3~--------------------3~|

(1.00)
G|------------------------------------|(X2)
D|------------------------------------|
A|-77-55-55555--66-44-55555-----------|
E|------------------------------------|

G|------------------------------------|(X2)
D|------------------------------------|
A|-7777777-55555555-3333333-555555----|
E|------------------------------------|

G|------------------------------------|
D|------------------------------------|
A|-7~------5~-------3~---03-----------|
E|------------------------------------|

G|------------------------------------|(X2)
D|------------------------------------|
A|-7777777-55555555-3333333-555555----|
E|------------------------------------|

G|-------------------------------------|(X2)
D|-------------------------------------|
A|-777//10101010-555//10101010-33333333|
E|-------------------------------------|

(1.45)
G|------------------------------------|(X4)
D|------------------------------------|
A|-7-7-7-7-5-5-5-5-3-3-3-3------------|
E|-------------------------3-3-3-3----|

(2.04)
G|------------------------------------|
D|------------------------------------|
A|-7~-57-57~-57~----—7~-57-57~-57—----|
E|---------------888--------------88*-|

(2.14)
G|------------------------------------|(X2)
D|-----7h97-----5h75------------------| se deja sonando
A|-777------555-------333-11----------| A|-7~ (2.25)
E|---------------------------33-2-3---|

(2.54)
G|------------------------------------|(X2)
D|------------------------------------|
A|-7~------5~-------3~-------5~-------|
E|------------------------------------|

G|-------------------------------------|(X2)
D|-------------------------------------|
A|-777//10101010-555//10101010-33333333|
E|-------------------------------------|

G|------------------------------------|
D|------------------------------------|
A|-7777-7-77-7-7---7~-----------------|
E|------------------------------------|

Comentarios del colaborador: o_m_r95@hotmail.com

Calificar esta versión:
Aviso: Este fichero es trabajo propio de su transcriptor y representa su interpretación personal de la canción. El material contenido en esta página es para exclusivo uso privado, por lo que se prohibe su reproducción o retransmisión, así como su uso para fines comerciales.