Rucci, Austin Tv (tablatura)

Autor: hendrix/Slash/ Santana/Van Halen.. | 42220 visualizaciones

Intro
(00:14) a (00:35)
e---------------------------------------------------------------
b--13-12--------------------------------------------------------
g-------13-11-9-13-12-13-9-10-11-10-9-13-12-11-9----------------X2
D---------------------------------------------------------------
A---------------------------------------------------------------
E---------------------------------------------------------------

(00:35)   a (01:00) {      (01:00) a (01:13)
e----------{--------{--------------------------------------------
b----------{--------{--------------------------------------------
g-6-7-9-7-6{-5-7-9-5{-5-5-5-5-7-7-7-7-7-9-9-9-9-9----------------X2
D----------{--------{--------------------------------------------
A----------{--------{--------------------------------------------
E----------{--------{--------------------------------------------
    X4         X7                     X4
(01:14) a (01:25)
e----------------------------------------------------------------
b----------------------------------------------------------------
g----------------------------------------------------------------X2
D-5555-3333-33---------------------------------------------------
A-5555-3333-33---------------------------------------------------
E-3333-1111-55---------------------------------------------------




(01:26) a (01:37)pendiente
e------------------------------------------
b------------------------------------------
g------------------------------------------
D--555555-7777-555555-6666-!244-5555!------
A--555555-7777-555555-6666-!244-5555!------
E--333333-5555-333333-4444-!244 3555!------
                           !    X2  !
Aqui se brincan hasta el 01:49)

(01:49) a (02:02)
e-----------------------------------------------------------------
b-----------------------------------------------------------------
g-----------------------------------------------------------------
D--5555-44444-1111-55555------------------------------------------
A--5555-44444-3333-55555------------------------------------------
E--3333-22222-3333-33333------------------------------------------
            (X2)






Aqqui entra la vos

ponte a leer tu libro de cuentos
e------------------------------------------
b------------------------------------------
g-11-9-7-9-10 -----9-12--------------------
D-------------10-12------------------------
A------------------------------------------
E------------------------------------------

y se la llevan un rato en esto

e------------------------------------------
b------------------------------------------
g-11-9-------------------------------------X varias veces
D-----8-7----------------------------------
A------------------------------------------
E------------------------------------------


Calificar esta versión:
Aviso: Este fichero es trabajo propio de su transcriptor y representa su interpretación personal de la canción. El material contenido en esta página es para exclusivo uso privado, por lo que se prohibe su reproducción o retransmisión, así como su uso para fines comerciales.