Marduk, Austin Tv (tablatura)

Autor: hendrix/Slash/ Santana/Van Halen.. | 16924 visualizaciones

ForMa 1
e-0-0-0--0-0-0---/   /-2-2-2--2-2-2---/
B-1-1-1--1-1-1---/   /-3-3-3--3-3-3---/
G-2-2-2--1-1-1---/x2 /-4-4-4--3-3-3---/ x2
D-2-2-2--2-2-2---/   /-4-4-4--4-4-4---/
A-0-0-0--0-0-0---/   /-2-2-2--2-2-2---/
E----------------/   /----------------/

Esto es = Solo q Trasladado Esto Lo pueden Tokr Tambien Cuando
Ntra El Rtmo Alternado Ok (Lo Pongo x Si Se Les Dificulta La ForMa 1)

e----------------/   /----------------/
B----------------/   /----------------/
G-5-5-5--5-5-5---/x2 /-7-7-7--7-7-7---/
D-7-7-7--6-6-6---/   /-9-9-9--8-8-8---/
A-7-7-7--7-7-7---/   /-9-9-9--9-9-9---/
E----------------/   /----------------/

**Cuando Empieza La Kncion Se Oie Un Cmo Punteo Que Es Este
Se Repite Varias Veces Y No Sta Difícil Solo Escuchen
La Kncion Para Saber En Que Tiempos Entra**

Seg:  0:06
e----------------/
B----------------/
G--4-3-----------/
D-------5--------/ x6
A----------------/
E----------------/

Aqi Ntra L Primer Sonido De Teclado Ok
Necesita distorsion Seg 0:04
e-------------------------------/
B-4-5-7-4---7-5---4-5-7-4---7-5-/
G-------------------------------/x6
D-------------------------------/
A-------------------------------/
E-------------------------------/

La 2ºda parte va asi */los numeros del
Parentesis no se tocan solo se presionan para q
Suenen ligeramente*/
 Seg 0:35
e--7-5-----(4)-------7-5--------/
B------8-7---(7)-(5)------8-7---/
G-------------------------------/
D-------------------------------/
A-------------------------------/
E-------------------------------/

Esto Continua Depues D la Introduccion Y El Teclado
Sta Es Como La Armonixacion Scuchen La Kncion
Escuchen los kmbios para q sepan cuantas veces
Se repite Seg 0:48-1:20
ArmoniXacion 0:48-1:20
e-2-2-2-2--6-6-6-6--4-4-4-4--0-0-0-0---/
B-4-4-4-4--9-9-9-9--7-7-7-7--2-2-2-2---/
G-3-3-3-3--6-6-6-6--4-4-4-4--1-1-1-1---/
D-4-4-4-4--8-8-8-8--6-6-6-6--2-2-2-2---/
A-2-2-2-2--6-6-6-6--4-4-4-4--0-0-0-0---/
E--------------------------------------/

Este Es La Parte Del Teclado q Ntra
durante La Armonixacion
Seg 0:48
e--------------4-------------------/
B-4--4-5-7--7----7-5-4---4-2-4-----/
G----------------------------------/x3
D----------------------------------/
A----------------------------------/
E----------------------------------/

Teclado del 1.21- 2.06 (bajo)
e-7--7-5------------7--7-5-------------/
B---------8-7--5--7---------8--7--5--7-/
G--------------------------------------/
D--------------------------------------/
A--------------------------------------/
E--------------------------------------/

Ia de Una Vez Me dijo my primo Q Pusiera
El Bajo ahí sta
Creo q se escribe asi Stas Son las notas
Ustedes oigan los kmbios ok no recuerdo cuantas
Veces se repite :p
G-------------------------------------------/
D-------------------------------------------/
A-------------------------------------------/
E-7-7-7--6-—6-6-6-7-7--7-7-7--6-6--6-6-6-6--/

Deps Dl Teclado Entra Otra vz Rasgueo
Ahora Viene Siendo El Ritmo Alternado
Q lo Pueden Tokr tamb como Lo Indiq En L
Inicio
e-2-2-2-2-2--2-2-2-2-2--0-0-0--0-0-0---/
B-3-3-3-3-3--3-3-3-3-3--1-1-1--1-1-1---/
G-4-4-4-4-4--3-3-3-3-3--2-2-2--1-1-1---/
D-4-4-4-4-4--4-4-4-4-4--2-2-2--2-2-2---/
A-2-2--------2-2--------0------0--------/
E-------------------------------------/
Ahora Ntra el teclado 2.06 seg.
e----7-------/
B--5---7-5---/
G------------/
D------------/
A------------/
E------------/

Ntra La Part De Movimiento D La Kncion
Va A Vlocidad  Con Un Poco De Distorsion
es Mas Cuando Tok Las Notas Mas Agudas
Las notas de e van semimuteadas y con distorsion
Tmb se alternan escuchen la kncion

e------7------9-----11------12---------------/
B--------------------------------------------/
G-9999---9999---9999---9999------------------/x2
D-9999---9999---9999---9999-----99999999999--/
A-7777---7777---7777---7777-----99999999999--/
E-------------------------------77777777777--/

e------7------11-----9------12----------------/
B---------------------------------------------/
G-9999---9999---9999---9999-------------------/x2
D-9999---9999---9999---9999----999999999999---/
A-7777---7777---7777---7777----999999999999---/
E------------------------------777777777777---/

                                   *Agudo*
e---7-----/-----------/---7-----/------------/
B-5---7-5-/-----------/-5---7-5-/------------/
G---------/9999999999-/---------/------------/
D---------/9999999999-/---------/-9999999999-/
A---------/7777777777-/---------/-9999999999-/
E---------/-----------/---------/-7777777777-/

*Al Terminar Sta Parte Se Oie Tambien Otra Cmo Guitarra
Sta Va Cm Mas Efecto Y Entra Al Momento De Tokr El Acorde Anterior
El Cual Se Los Señalo Cn “Agudo” (Cuando Toqn Kda Nota Usen
Efectos Como Vibrator Y Slade Para Que Se Oiga Mas Rifado) *
“Agudo”
e-----------------14-15~-----------/
B-7-9-11-12-14-15----------11~---7~/(Va A Velocidad Leve
G----------------------------------/ De Todos Modos Esto
D----------------------------------/ Es Sonido Agudo Del
A----------------------------------/ Sintetizador)
E----------------------------------/

Se Vuelve A Tocar El Ritmo Alternado ok
Despues Sigue Ste Tipo Arpegio
/*- Se Oien Dos Voces Por Asi Llamarlo Ok
Io Se Las Señalo Va /*-

Aqi Sta La Tab junto Con El Teclado Q Sta Apart
Esto Se Repite 6 veces Lo Unico q
Kmbia es el teclado
e---7------5------3---------/--7-5---3--/
B-8---8--7---7--5---5-3-----/-5----7----/
G-----------------------5-4-/-----------/
D---------------------------/-----------/
A---------------------------/-----------/
E---------------------------/-----------/

e---7------5------3--------/--7-5---7---/
B-8---8--7---7--5---5-3----/-5----7-----/
G----------------------5-4-/------------/
D--------------------------/------------/
A--------------------------/------------/
E--------------------------/------------/

e---7------5------3--------/--7---7--5---/
B-8---8--7---7—-5---5-3----/-5---5-----7-/
G----------------------5-4-/-------------/
D--------------------------/-------------/
A--------------------------/-------------/
E--------------------------/-------------/

e---7------5------3--------/--7-5---7----/
B-8---8--7---7--5---5-3----/-5----7------/
G----------------------5-4-/-------------/
D--------------------------/-------------/
A--------------------------/-------------/
E--------------------------/-------------/

e---7------5------3--------/
B-8---8--7---7--5---5-3----/
G----------------------5-4-/x2
D--------------------------/
A--------------------------/
E--------------------------/

Sta Es La Otra Voz Cn Un Poco De Distorsion
Se Repite Las Mismas Veces Q La Primera Parte y con el mismo
teclado
e---7------5------3------2------/
B-8---8--7---7--5---5--3--------/
G--------------------------5-4--/x6
D-------------------------------/
A-------------------------------/
E-------------------------------/

Ste Es El Ultimo Arpegio D La Kncion
Les Recomiendo Hacer Media Cejilla N 3l Traste 7 ok
Y Solito Sale El Arpegio xD

e--7----7----10---10---8---8---7---7-------/
B---8----8-----7----7---8---8---7---7------/
G----7----7-----7----7---7---7---7---7-----/
D------------------------------------------/
A------------------------------------------/
E------------------------------------------/

e--7---7---10---10---8---8---7---7---------/
B---8---8----7----7---8---8---7---7--------/
G----7---7----7----7---7---7---7---7-------/
D------------------------------------------/
A------------------------------------------/
E------------------------------------------/

e-7---7---10---10---8---8---8----/--7---/
B--8---8----7----7---8----8------/--7---/
G---7---7----7----7---7----------/--9---/
D--------------------------------/--9---/
A--------------------------------/--7---/
E--------------------------------/------/

Comentarios del colaborador: o_m_r95@hotmail.com

Calificar esta versión:
Aviso: Este fichero es trabajo propio de su transcriptor y representa su interpretación personal de la canción. El material contenido en esta página es para exclusivo uso privado, por lo que se prohibe su reproducción o retransmisión, así como su uso para fines comerciales.