Cisne De Pan, Austin Tv (tablatura)

Autor: Slash13 | 45108 visualizaciones

Aqui les traigo una bonita cancion de AUSTIN TV llamada "Cisne de Pan"  que la disfruten :)


INTRO:


|-0-----------0-------------3---------|
|-0-----------0-------------3---------|
|-0--(x10)---2--(x10)----0--(x10)-|
|-2-----------3-------------0---------|
|-3-----------3-------------2---------|
|-3-----------1-------------3---------|


CONTINUACION:

|-0----------0---------0---------|
|-1----------0---------0---------|
|-2--(x5)---2--(x2)---0--(x1)--|
|-2----------2---------2---------|
|-0----------0---------2---------|
|----------------------------------|


SEGUNDA PARTE DEL INTRO:


|-0-----------0------------3---------|
|-0-----------1------------0---------|
|-0--(x10)---2--(x10)---0--(x10)-|
|-2-----------3------------0---------|
|-3-----------0------------2---------|
|---------------------------3---------|

CONTINUACIÓN:

|-0----------0----------|
|-1----------0----------|
|-2--(x7)---0--(x1)----|
|-2----------2----------|
|-0----------2----------|
|------------------------|

*REPETIRLO TODO*

Bueno eso es todo amigos. No estoy 100% seguro si es correcto pero ahi esta. Y comenten :D
Calificar esta versión:
Aviso: Este fichero es trabajo propio de su transcriptor y representa su interpretación personal de la canción. El material contenido en esta página es para exclusivo uso privado, por lo que se prohibe su reproducción o retransmisión, así como su uso para fines comerciales.