Angeles De Las Tinieblas, Attaque 77 (tablatura)

Autor: Anónimo | 40067 visualizaciones



Intro: (EGD EGDA)x4

       E                    G    A#
Enjendros de sangre, vienen a mi mente.
Figuras extrañas sin rostros ni vientres.
Su intención es simple, tu has de comprenderla.
Sus turbios cerebros no son de esta tierra.

E                       D                    A              G-G-G*
Angeles negros y una espesa niebla me arrastra y me lleva.
Voy contemplando esos rostros oscuros que se acercan a mí.

Mil ojos sedientos brillan en la noche.
Dos hachas estallan sobre un ataúd gris.
Un niño maldito mira complaciente
la cruz que marcó su dejar de existir.

Angeles negros...

Inter: (EDE F*)x4 (E  F*)x4 

A G A G A     G
Ah..... ah... ah..
Ah..... ah... ah

*Solo ([E G# A#]x4  [E D A G-G-G]x2)

Intro

Enjendros de sangre vienen a mi mente....

Angeles negros y una espesa niebla....

Fin: E-E


-----------------------------------------------------------------------
G-G-G*:

G -----------------|
D -----------------| El bajo hace así en esta parte
A -----2-----------|
E --3----3--0-2h3--|

- - - - - - - - - - - - - - - - - - - - - - - - - - - - - - - - - - - -
F*:

e -----------|
B --6p5------|
G ------7p5--| Creo que la segunda guitarra hace así en F
D -----------|
A -----------|
E -----------|

- - - - - - - - - - - - - - - - - - - - - - - - - - - - - - - - - - - -
*Solo:

(E G# A# x4):

e -----------|----------------------|------------------|
B -----------|---------7-8-7-8-7~---|--7h8p7-7---------|
G --169-9~--|--9-7-9-7-------------|-------9-9p7-7/9~-|
D -----------|----------------------|------------9-----|
A -----------|----------------------|------------------|
E -----------|----------------------|------------------|

e ------------10-----10-----10-----10--10-----10--10-----10/12~---|
B --10/12---12--12p10--12p10--12p10--12--12p10--12--12p10---------|
G ----------------------------------------------------------------|
D ----------------------------------------------------------------|
A ----------------------------------------------------------------|
E ----------------------------------------------------------------|

e --12p1012p1012p10-----------------------|
B -----------------12p1012p10-------------|
G ---------------------------12p9-9/12~---| por si no entienden,
D ----------------------------------------| las notas acá son 12,10 y 9
A ----------------------------------------|
E ----------------------------------------|

.......................................................................

(E D A G-B-G x2):

e ---------------------------------------|----------------------------|
B ---------------------------------------|--12p10--12p10--12p10-------|
G --7/9--9/11-11/12-11--11/12-12/14-12---|-------12-----12-----12-9~--|
D ---------------------------------------|----------------------------|
A ---------------------------------------|----------------------------|
E ---------------------------------------|----------------------------|

e ---------------------|-------10-----9--9----8/12~---|
B ---8p7---7-----------|--9/12---12p10-10-10p8--------|
G --9---9p7-9p7-7/9~---|------------------------------|
D -------------9-------|------------------------------|
A ---------------------|------------------------------|
E ---------------------|------------------------------|

Fuente original: LaCuerda
Colaborador original: Cris77ian [[email protected]]





Calificar esta versión:
Aviso: Este fichero es trabajo propio de su transcriptor y representa su interpretación personal de la canción. El material contenido en esta página es para exclusivo uso privado, por lo que se prohibe su reproducción o retransmisión, así como su uso para fines comerciales.