Nada Más, Atahualpa Yupanqui (tablatura)

Autor: Anónimo | 29236 visualizaciones



Hola, esta es una gran cancion para un gran hombre,
Ernesto ¨Che¨ Guevara espero les guste...



E||--0-----0-------|---0-----0-------|---0-----0-------|---0-----0------|
B||----1-----1-----|-----3-----3-----|-----0-----0-----|-----1-----1----|
G||------2-----2---|-------1-----1---|-------1-----1---|-------2-----2--|
D||--------------2-|---------------0-|---------------2-|---------------3|
A||0---------------|-----------------|-----------------|-0--------------|
E||----------------|-0---------------|-0---------------|----------------|



---0-----0-------|---0-----0-------|---0-----0-------|---0-----0-------|
-----1-----1-----|-----3-1---3-1-3-|-----3-----3-0---|-----1-----1-----|
-------2-----2---|-----------------|-------1---------|-------2-----2---|
---------------2-|-----------------|---------------2-|---------------2-|
-0---------------|-----------------|-----------------|-0---------------|
-----------------|-0---------------|-0---------------|-----------------|



----------------|-----------------|-----------------|-----------------|
----1-------1---|-----0-----------|-----1-------1---|-----0-----------|
----2-------2---|-----2-----------|-----2-------2---|-----5-----------|
--2-------2-----|---0-------0-3-2-|---2-------2-----|---0-------0-3-2-|
0-------0-------|-------1-2-------|-0-------0-------|---------2-------|
------0-------0-|-1---------------|-------0-------0-|-1-----4---------|



-----0-------0---|-----0-------0---|-----0-------0---|-----0-------0---|
-----1-------1---|-----3-------3---|-----3-------3---|-----1-------1-0-|
---2---2---2---2-|---1---1---1---1-|---1---1---1---1-|---2---2---2-----|
-----------------|-----------------|-----------------|-----------------|
-0-------3-------|---------2-------|---------2-------|-0-------3-------|
-----------------|-0---------------|-0---------------|-----------------|



-----0-------0---|-----0-------0---|-----------------|-----0-----0---0-|
-----1-------1---|-----3-------3---|-----5-----------|-----1-----1---1-|
---2---2---2---2-|---1---1---1---1-|-----7-----7---7-|---2-----2-------|
-----------------|-----------------|---6-----6-----6-|-------------2---|
-0-------3-------|---------2-------|-----------------|-0-----3-3-------|
-----------------|-0---------------|-0-----4-4---7---|-----------------|



-----1-------1---|-----0-------0---|-----0-------0---|-----1-------0---|
-----1-------1---|-----3-------3---|-----3-------3---|-----1-------1---|
---2---2---2---2-|---1---1---1---1-|---1---1---1---1-|---2---2---2---2-|
-----------------|-----------------|-0---------------|-----------------|
---------3-------|---------2-------|---------2-------|-0-------0-------|
-1---------------|-0---------------|-----------------|-----------------|



-----0-----------|------0-----0---0-|-----5-----8-----|-----7-----7-----|
-----3-----3---3-|------1-----1---1-|-------5-----5---|-------6-----6---|
---1-----1-----1-|----2-----2-------|---------5-----5-|---------7-----7-|
-----------------|--------------2---|-----------------|-----------------|
-------0-0---2---|--0-----3-3-------|--0--------------|-----------------|
-0---------------|------------------|-----------------|--0--------------|



----7-----7-----|----5-----5-----|----5-----5-----|----4-----4-----|
------------5---|------5-----5---|------4-----4---|------3-----3---|
------5-7-----7-|--------5-----5-|--------5-----5-|--------4-----4-|
----------------|----------------|----------------|----------------|
----------------|-0--------------|-0--------------|----------------|
-0--------------|----------------|----------------|-0--------------|



----4-----4-----|----5-----------|-----------------|-----------------|
------3-----3---|------5---5-----|-----1-------1---|-----0-----------|
--------4-----4-|--------5---5---|-----2-------2---|-----2-----------|
----------------|----------------|---2-------2-----|---0-------0-3-2-|
----------------|-0--------------|-0-------0-------|-------1-2-------|
-0--------------|--------------0-|-------0-------0-|-1---------------|



-----------------|-----------------|---0-------0-----||----0-------0-----|
-----1-------1---|---0-------------|---1-------1-----||----3-------3-----|
-----2-------2---|---2-------------|-2---2---2---2---||*-1---1---1---1---|
---2-------2-----|-0-------0-3-0---|-----------------||*-----------------|
-0-------0-------|-------2-------0-|-------3---------||--------2---------|
-------0-------0-|-----4-----------|---------------0-||----------------0-|



---0-----0---0---|---0-----0---0---|---0-------0-----|---0-------0------||
---0-----0---0---|---1-----1---1---|---1-------1-----|---3-------3------||
-1-----1---------|-2-----2---------|-2---2---2---2---|-1---1---1---1---*||
-----------------|-----------2-----|-----------------|-----------------*||
---------------0-|-----3-3-------0-|-------3---------|-------2----------||
-----2-2---4-----|-----------------|---------------0-|---------------0--||



---0-----0---0---|---0-----0---0---|---1-------1-----|---0-------0-----|
---0-----0---0---|---1-----1---1---|---1-------1-----|---3-------3-----|
-1-----1---------|-2-----2---------|-2---2---2---2---|-1---1---1---1---|
-----------------|-----------2-----|-----------------|-----------------|
---------------0-|-----3-3---------|-------3---------|-------2---------|
-----2-2---4-----|---------------1-|---------------0-|---------------0-|



---0-------0-----|---1-------------|---0-----0---0---|-0-----0---------|
---3-------3-----|---1-----1-------|---0-----0---0---|---3-----1-------|
-1---1---1---1---|-2-----2-----2---|-1---------------|-----2-----2-----|
-----------------|-----2-2---2-----|-------6---------|-------------2---|
-------2-------0-|-----------------|-----------2---0-|-----------------|
-----------------|---------------0-|-----4-4---------|---------------0-|



-0-----0---------|-0-----0---------|-0-----0---------|-----------------|
---3-----3-------|---0-----0-------|---1-----1-------|---1-------1-----|
-----1-----1-----|-----1-----1-----|-----2-----2-----|---2-------2-----|
-------------0---|-------------2---|-------------2---|-2-------2-------|
-----------------|---------------0-|---------------0-|-----------------|
---------------0-|-----------------|-----------------|-----0-3-----0-1-|



------------------|------------------|------------------|-----0----5-|
----0-------------|----1-------1-----|----0-----------1-|-----3----5-|
----2-------------|----2-------2-----|----2-----------2-|-----1----5-|
--0-------0-3-2---|--2-------2-------|--0-------0-3-2-2-|-----2----7-|
--------2-------0-|------------------|--------2-------0-|-----2----7-|
------4-----------|------0-3-----0-1-|------4-----------|-----0----5-|


Dedicada al sr.German Machado Lopéz, y a todos los que han
luchado por los de abajo, por la libertad.





Calificar esta versión:
Aviso: Este fichero es trabajo propio de su transcriptor y representa su interpretación personal de la canción. El material contenido en esta página es para exclusivo uso privado, por lo que se prohibe su reproducción o retransmisión, así como su uso para fines comerciales.