Fuga Y Misterio, Astor Piazzolla (tablatura)

Autor: kbgol | 29506 visualizaciones



e|-------------------------------------------------------
b|-------------------------------------------------------
g|------------------------------------9-7----------------
d|--------------------7-8-9-10-8-9--9-----10-9-8---------
a|----7-6-7-9-10-9-10------------------------------------
e|--7----------------------------------------------------

e|---------------------------------------------------------
b|---------------------------------------------------------
g|---------------------------7-----------------------------
d|--------------------9-9-9-9-10-9-7-6--9-----7-6--7-9-10--
a|-10-9-7-9--8-9-10-9---------------------8-7--------------
e|---------------------------------------------------------

e|-----------------------------------------------------------
b|-----------------------------------------------------------
g|-----------------------------------------------------------
d|-7-9-7-9-10-9-7----7--------------7-9---8-9-9-9-9-9-9-9-7--
a|---------------10-9-------10-9-10--------------------------
e|---------------------10-8----------------------------------

e|-------------------------------------------------------------
b|-------------------------------------------------------------
g|-------------------------------------------------------------
d|--------9-7--------8-7-------8-7--------7---------7----------
a|-10-9-7-----10-9-7----10-9-7-----10-9-7--10-9-7-6--10-9-7-6-7
e|-------------------------------------------------------------







Comentarios del colaborador: bueno esta cancion esta comprobada y es asi y no la copie de ningun lado :@ cualquier duda comuniquense con yo :P nicolas_9_12_93@hotmail.com SALUDOSSSS

Calificar esta versión:
Aviso: Este fichero es trabajo propio de su transcriptor y representa su interpretación personal de la canción. El material contenido en esta página es para exclusivo uso privado, por lo que se prohibe su reproducción o retransmisión, así como su uso para fines comerciales.