Closure, Asking Alexandria (tablatura)

Autor: the15738 | 30055 visualizaciones



Asking Alexandria
Closure

.=Palm mutes
^=whammy bar
h=hammer on
p=pull off

|--------------------------------------------------------------|
|--------------------------------------------------------------|
|--------------------------------------------------------------|
|--------------------------------------------------------------|
|--0--0-0---0-0---0-0-0-0---0-0----0--0-0---0-0---0-0-0--0-0-0-|
|--0--0-0---0-0---0-0-0-0---0-0----0--0-0---0-0---0-0-0--0-0-0-|
   .  . .   . .   . . . .   . .    .  . .   . .   . . .  . . .

|-----------------------------------------------------------------|
|-----------------------------------------------------------------|
|-----------------------------------------------------------------|
|-----------------------------------------------------------------|
|--0--0-0---0-0---0-0-0-0---0-0----0--0-0---0-0---7-8-7--------10-|
|--0--0-0---0-0---0-0-0-0---0-0----0--0-0---0-0---------10-7-8----|
   .  . .   . .   . . . .   . .    .  . .   . .  
|--------------------------------------------------------------|
|--------------------------------------------------------------|
|--------------------------------------------------------------|
|--------------------------------------------------------------|
|--0--0-0---0-0---0-0-0-0---0-0----0--0-0---0-0---0-0-0--0-0-0-|
|--0--0-0---0-0---0-0-0-0---0-0----0--0-0---0-0---0-0-0--0-0-0-|
   .  . .   . .   . . . .   . .    .  . .   . .   . . .  . . .
|-------------------------------------------------------|
|-------------------------------------------------------|
|-------------------------------------------------------|
|-------------------------------------------------------|
|--0--0-0---0-0---0-0-0-0---0-0----0---------0----0-0-0-|
|--0--0-0---0-0---0-0-0-0---0-0----0---------0----0-0-0-|
   .  . .   . .   . . . .   . .    .         .    . . .
|--------------------------------------------------------------|
|--------------------------------------------------------------|
|--------------------------------------------------------------|
|--------------------------------------------------------------|
|--0--0-0---0-0---0-0-0-0---0-0----0--0-0---0-0---0-0-0--0-0-0-|
|--0--0-0---0-0---0-0-0-0---0-0----0--0-0---0-0---0-0-0--0-0-0-|
   .  . .   . .   . . . .   . .    .  . .   . .   . . .  . . .
|----------------------------------------------------------------|
|----------------------------------------------------------------|
|----------------------------------------------------------------|
|----------------------------------------------------------------|
|--0--0-0---0-0---0-0-0-0---0-0----0--0-0---0-0--7-8-7--------10-|
|--0--0-0---0-0---0-0-0-0---0-0----0--0-0---0-0--------10-7-8----|
   .  . .   . .   . . . .   . .    .  . .   . .
|--------------------------------------------------------------|
|--------------------------------------------------------------|
|--------------------------------------------------------------|
|--------------------------------------------------------------|
|--0--0-0---0-0---0-0-0-0---0-0----0--0-0---0-0---0-0-0--0-0-0-|
|--0--0-0---0-0---0-0-0-0---0-0----0--0-0---0-0---0-0-0--0-0-0-|
   .  . .   . .   . . . .   . .    .  . .   . .   . . .  . . .
|--------------------------------------|
|--------------------------------------|
|--------------------------------------|
|--------------------------------------|
|--0--0-0---0-0---0-0-0-0---0-0----0^--|
|--0--0-0---0-0---0-0-0-0---0-0----0^--|
   .  . .   . .   . . . .   . .


Play x4
|--------------------------------------------------------------------------|
|--------------------------------------------------------------------------|
|--------------------------------------------------------------------------|
|--------------------------------------------------------------------------|
|------8---8-----8------8---8-----8-----------------------10--10--10-8p7h8-|
|--0-0---0---0-0----0-0---0---0-0---0---0-0-8-0-8-0-0-8--0---0---0---------|
   . .   .   . .    . .   .   . .   .   . .   .   . .    .   .   .

Play x2
|-----------------------------------------------------------------------------------------|
|-----------------------------------------------------------------------------------------|
|-----------------------------------------------------------------------------------------|
|-------7---7----7------7---7-----7------------------------8---8---8----7h5p7-------------|
|-------------------------------------------8---8-----8-----------------------------------|
|--0-0---0---0-0----0-0---0---0-0---0---0-0---0---0-0----0---0---0------------------------|

|---------------------------------------------------------------------------|
|---------------------------------------------------------------------------|
|--7-7-7-7---7-7--7-7-------------------------------------------------------|
|--x-x-x-x---x-x--x-x-------------------------------------------------------|
|--5-5-5-5---5-5--5-5-------------------------------------------------------|
|---------------------------------------------------------------------------|

|-------------------------------------------------------|
|-------------------------------------------------------|  
|---10--9--10--12--10--9--------------------------------|
|--------------------------12--10--9--------------------|
|-------------------------------------------------------|
|-------------------------------------------------------|

|-------------------------------------------------------|
|-------------------------------------------------------|
|---10--9--10--12--10--9--------------------------------|
|--------------------------12--10--9--------------------|
|-------------------------------------------------------|
|-------------------------------------------------------|

|-------------------------------------------------------|
|-------------------------------------------------------|
|---10--9--10--12--10--9--------------------------------|
|--------------------------12--10--9--------------------|
|-------------------------------------------------------|
|-------------------------------------------------------|


|-------------------------------------------------------|
|------------------10-----------------------------------|
|---10--9--10--12------12--10--9------------------------|
|-------------------------------------------------------|
|-------------------------------------------------------|
|-------------------------------------------------------|

|-------------------------------------------------------|
|-------------------------------------------------------|  
|---10--9--10--12--10--9--------------------------------|
|--------------------------12--10--9--------------------|
|-------------------------------------------------------|
|-------------------------------------------------------|

|-------------------------------------------------------|
|-------------------------------------------------------|
|---10--9--10--12--10--9--------------------------------|
|--------------------------12--10--9--------------------|
|-------------------------------------------------------|
|-------------------------------------------------------|


|-------------------------------------------------------|
|-------------------------------------------------------|
|---10--9--10--12--10--9--------------------------------|
|--------------------------12--10--9--------------------|
|-------------------------------------------------------|
|-------------------------------------------------------|


|---------------------------------------------------------------------------------------|
|------------------10-------------------------------------------------------------------|
|---10--9--10--12------12--10?9?10v--10/12--12/9---------------------------7?9--9/10v---|
|-------------------------------------------------10-/7---7/12--10--10v-----------------|
|---------------------------------------------------------------------------------------|
|---------------------------------------------------------------------------------------|


|----------------------------------------------------------------|
|----------------------------------------------------------------|
|----------------------------------------------------------------|
|----------------------------------------------------------------|
|-0-0---0-0-0-0---0-0---0-0--0-0-0-0---0-0---0-0---0-0-0-0---0-0-|
|-0-0---0-0-0-0---0-0---0-0--0-0-0-0---0-0---0-0---0-0-0-0---0-0-|
  . .   . . . .   . .   . .  . . . .   . .   . .   . . . .   . .

|-1--0-------------0-|
|--------------------|
|-------2-------2----|
|----------3---------|
|--------------------|
|--------------------|
[ Tab from: http://www.guitaretab.com/a/asking-alexandria/271758.html ]
|----------------------------------------------------------------|
|----------------------------------------------------------------|
|----------------------------------------------------------------|
|----------------------------------------------------------------|
|-0-0---0-0-0-0---0-0---0-0--0-0---0-0-0---0-0---0-0-0-0---0-0---|
|-0-0---0-0-0-0---0-0---0-0--0-0---1-1-1---0-0---0-0-0-0---0-0---|
  . .   . . . .   . .   . .  . .   . . .   . .   . . . .   . .

|-1--0-------------0-|
|--------------------|
|-------2-------2----|
|----------3---------|
|--------------------|
|--------------------|

|---------------------------------------------------------------------|
|---------------------------------------------------------------------|
|---------------------------------------------------------------------|
|---------------------------------------------------------------------|
|-0-0~---0-0-0-0~---0-0~---0-0~--0-0~---0-0-0---0-0---0-0-0-0---0-0---|
|-0-0~---0-0-0-0~---0-0~---0-0~--0-0~---1-1-1---0-0---0-0-0-0---0-0---|
  . .    . . . .    . .    . .   . .    . . .   . .   . . . .   . .

|-1--0-------------0-|
|--------------------|
|-------2-------2----|
|----------3---------|
|--------------------|
|--------------------|

|----------------------------------------------------------------|
|----------------------------------------------------------------|
|----------------------------------------------------------------|
|----------------------------------------------------------------|
|-0-0---0-0-0-0---0-0---0-0--0-0---0-0-0---0-0---0-0-0-0---0-0---|
|-0-0---0-0-0-0---0-0---0-0--0-0---1-1-1---0-0---0-0-0-0---0-0---|
  . .   . . . .   . .   . .  . .   . . .   . .   . . . .   . .

|-1--0-------------0---------------------|
|----------------------------------------|
|-------2-------2------------------------|
|----------3--------------------------0~-|
|----------------------0-0--0-0--0-0--0~-|
|----------------------1-1--1-1--1-1--0~-|
  
                     . .  . .  . .
Pausa 


|-----------------------------------------------------------------------------------|
|-----------------------------------------------------------------------------------|
|--7------------12----------14--------14------------7--------12--------14------14---|
|--x------------x------------x---------x-----------?x---------x---------x-------x---|
|--5------------10----------12--------12------------5--------10--------12------12---|
|-----------------------------------------------------------------------------------|

|------------------------------------------------------------------------------|
|------------------------------------------------------------------------------|
|--7---7---7---7---7---7---7---7-7-7-----5---5---5---5---5---5---5---5-5-5-----|
|--x---x---x---x---x---x---x---x-x-x-----x---x---x---x---x---x---x---x-x-x-----|
|--5---5---5---5---5---5---5---5-5-5-----3---3---3---3---3---3---3---3-3-3-----|
|------------------------------------------------------------------------------|

|------------------------------------------------------------------------------|
|------------------------------------------------------------------------------|
|--3---3---3---3---3---3---3---3-3-3-----11--11--11--11--11----5-5-5-5-5-5-----|
|--x---x---x---x---x---x---x---x-x-x-----x---x---x---x---x-----x-x-x-x-x-x-----|
|--1---1---1---1---1---1---1---1-1-1-----8---8---8---8---8-----3-3-3-3-3-3-----|
|------------------------------------------------------------------------------|

|-------------------------------------------------------------------------------------|
|-------------------------------------------------------------------------------------|
|--7---7---7---7---7---7---7---10-10-10-----5---5---5---5---5---5---5---10-10-10------|
|--x---x---x---x---x---x---x---x--x--x------x---x---x---x---x---x---x---x--x--x-------|
|--5---5---5---5---5---5---5---8--8--8------3---3---3---3---3---3---3---8--8?-8-------|
|-------------------------------------------------------------------------------------|

|--------------------------------------------------------------------------|
|--------------------------------------------------------------------------|
|--3---3---3---3---3---3---3-----11--11--11--11--11--11?11--11-------------|
|--x---x---x---x---x---x---x-----x---x---x---x---x---x---x---x-------------|
|--1---1---1---1---1---1---1-----8---8---8---8---8---8---8---8-------------|
|--------------------------------------------------------------------------|

|--------------------------------------------------------------------------|
|--------------------------------------------------------------------------|
|------5-5-5-5-5-5-5-------0-----------------------------------------------|
|------x-x-x-x-x-x-x-------0-----------------------------------------------|
|------3-3-3-3-3-3-3-------0-----------------------------------------------|
|--------------------------------------------------------------------------|


|---------------------------------------------|
|---------------------------------------------|
|---------------------------------------------|
|---------------------------------------------|
|----------------------0-0--0-0-0---0--0----0-|
|--0-0-0-0-0-0-0-0-----0-0--0-0-0---0--0----0-|
                       . .  . . .   .  .    .
|----------------------------------|
|----------------------------------|
|----------------------------------|
|----------------------------------|
|-------------------0-0-0---0----0-|
|-0-0-0-0-0-0-0-0---0-0-0---0----0-| 
                    . . .   .    .

|---------------------------------------------|
|---------------------------------------------|
|---------------------------------------------|
|---------------------------------------------|
|----------------------0-0--0-0-0---0--0----0-|
|--0-0-0-0-0-0-0-0-----0-0--0-0-0---0--0----0-|
                       . .  . . .   .  .    .
|----------------------------------|
|----------------------------------|
|----------------------------------|
|----------------------------------|
|-------------------0-0-0---0----0-|
|-0-0-0-0-0-0-0-0---0-0-0---0----0-| 
  . . . . . . . .   . . .   .    .

|-----------------------------------------------------|
|-----------------------------------------------------|
|-----------------------------------------------------|
|-----------------------------------------------------|
|-0-0---0-0---0-0-0-0-0-0---0-0---0-0---0-0-0---0-0-0-|
|-0-0---0-0---1-1-1-1-1-1---0-0---0-0---1-1-1---1-1-1-|
  . .   . .   . . . . . .   . .   . .   . . .   . . . 

|-----------------------------------------------------|
|-----------------------------------------------------|
|-----------------------------------------------------|
|-----------------------------------------------------|
|-0-0---0-0---0-0-0-0-0-0---0-0---0-0---0-0-0---0-0-0-|
|-0-0---0-0---1-1-1-1-1-1---0-0---0-0---1-1-1---1-1-1-|





Comentarios del colaborador: para todas las metaleras mi correo es : slayer-20111@hotmail.com

Calificar esta versión:
Aviso: Este fichero es trabajo propio de su transcriptor y representa su interpretación personal de la canción. El material contenido en esta página es para exclusivo uso privado, por lo que se prohibe su reproducción o retransmisión, así como su uso para fines comerciales.