Tobenai Sakana, Asian Kun Fu Generation (tablatura)

Autor: Dark Link Uchiha | 17660 visualizaciones





Intro: Guitar 1: |C#5|F#5|B5|E5| x2

Guitar 2:

e|-----------------------------------| 
B|-----------------------------------|
G|-8/9-9-9-8/9-9-9--11\9-9-9-8/9-9-9-|
D|-x-x-x-x-x-x-x-x---x-x-x-x-x-x-x-x-| x4
A|-6/7-7-7-6/7-7-7---9\7-7-7-6/7-7-7-|
E|-----------------------------------|


Verso:

e|---------------------------|
B|-9--9----9-----9--9----9---|
G|-9--9-9--9-9---9--9-9--9-9-|
D|---------------------------|x8
A|---------------------------|
E|---------------------------|

Luego: Guitar 1: |F#5|G#5|A5|E5| --> |F#5|G#5|A5|B5|

Guitar 2:
                                x3
e|----------------------|--------|------------|
B|----------------------|--------|------------|
G|*-9-9-9-9-9-9-9-9-9-9-|-9-8---*|-9-8h9p8----| 
D|*-x-x-x-x-x-x-x-x-x-x-|-----9-*|---------9~-| x2
A|----------------------|--------|------------|
E|----------------------|--------|------------|

el siguiente verso igual al primero pero no x8 sino x4

Solo: Guitar 1:

e|---------------------------------|
B|-10---10-9-10-9---10---10-9-10-9-|
G|-9----9----9------9----9----9----| x4
D|---------------------------------|
A|---------------------------------|
E|---------------------------------|

Guitar 2:

e|-------------------------|
B|-------------------------|
G|-----9-----------9-------|
D|-9~----9~--8-9~----9~--8-| x2
A|-------------------------|
E|-------------------------|

Luego la parte suave: no hay guitarras (tal vez con un efecto, no se ^^!) 

y en la parte "Nando sa....."

Guitar 1: |F#5|G#5|B5|C#5|

Guitar 2:

        x2                 x3
e|-------|-------------------|------------------------------|
B|-------|-------------------|------------------------------|
G|--9-8~-|--9-8~--9-8h9p8----|--9-8~---13-13\11-11--9-9\8-8-|
D|-9-----|-9-----9--------9~-|-9-----9-x--x--x--x---x-x-x-x-|
A|-------|-------------------|---------11-11\9--9---7-7\6-6-|
E|-------|-------------------|------------------------------|

lo que sigue luego es como el intro ambas guitarras.

Outro:

Guitar 1: |F#5|G#5|B5|E5|

Guitar 2: 
                                      x2
e|------------------|------------------|-------------|----|
B|------------------|------------------|-------------|----|
G|-9-8~-8-8-8-8-8-8-|-9-8~--9-8h9p8----|-9-8~--9---9-|-9\-|
D|9-----------------|9-----9--------9~-|9-----9-9--9-|-9\-|
A|------------------|------------------|-----------7-|-7\-|
E|------------------|------------------|-------------|----|


linkniwagcn@hotmail.com





Calificar esta versión:
Aviso: Este fichero es trabajo propio de su transcriptor y representa su interpretación personal de la canción. El material contenido en esta página es para exclusivo uso privado, por lo que se prohibe su reproducción o retransmisión, así como su uso para fines comerciales.