Siren, Asian Kun Fu Generation (bajo)

Autor: Dark Link Uchiha | 37507 visualizaciones






G||------------------|------------------|------------------|------------------|
D||------------------|------------------|------------------|------------------|
A||------------------|------------------|------------------|------------------|
E||------------------|------------------|------------------|------------------|
                                                                         
------------------|--------------------------|--------------------------|
------------------|--------------------------|--------------------------|
------------------|--------------------------|--------------------------|
------------------|--3--3--3--3--3--3--3--3--|--3--3--3--3--3--3--3--3--|
                                                     
--------------------------|-------------------------|
--------------------------|-------------------------|
--------------------------|-------------------------|
--2--2--2--2--2--2--2--2--|--7--7--7--5----5--0--2--|
                                                          
|----------------------------|---------------------------|
|*---------------------------|---------------------------|
|*---------------------------|---------------------------|
|---3--3-3-3---3--3-3--3--3--|--3--3-3-3---3--3-3--3--3--|
                                                          
---------------------------|----------------------------||
---------------------------|---------------------------*||
---------------------------|---------------------------*||
--2--2-2-2---2--2-2--2--2--|--7--7-7-7--5---5-5--0--2---||
                                                             
---------------------------||-------------------------------|
---------------------------||*------------------------------|
---------------------------||*------------------------------|
--7--7-7-7--5---5-5-0-5----||---3-3-3--3--0-3--3--3-0-2-3-5-|
                                                              
------------------------------|------------------------------|
------------------------------|------------------------------|
------------------------------|--------------------------5-4-|
--3-3-3--3--0-3--3--3-0-2-3-5-|--2-2-2--2--0-2--2--0-2-0-----|
                                                                
-------------------------------||------------------------------|
------------------------------*||------------------------------|
------------------------------*||------------------------------|
--7-7-7--7--7-5--5--5-0-0-2-2--||--7-7-7--7--7--5-5-5--0-0-2-2-|
                                                        
---------------------------|---------------------------|
---------------------------|---------------------------|
---------------------------|---------------------------|
--3---3-3--0-3--3--0-3--3--|--3---3-3--0-3--3--0-3--3--|
                                                       
---------------------------|--------------------------|
---------------------------|--------------------------|
---------------------------|--------------------------|
--2---2-3--0-2--2--0-2--2--|--7---7-7--7-5--5--0-5----|
                                                        
---------------------------|---------------------------|
---------------------------|-------------5--5----------|
---------------------------|-----------5-------5-------|
--3---3-3--0-3--3--0-3--3--|--3---0-3------------3--3--|
                                                        
---------------------------|---------------------------|
---------------------------|-----------------7--7------|
---------------------------|---------------------------|
--2---2-2--0-2--2--0-2--2--|--7---0-7--7--5--------0-2-|
                                                          
----------------------------|----------------------------|
----------------------------|----------------------------|
----------------------------|----------------------------|
--3--3-3-3--3-3--3--3-3--3--|--3--3-3-3--3-3--3--3-3--3--|
                                                           
----------------------------|-----------------------------|
----------------------------|-----------------------------|
----------------------------|-----------------------------|
--2--2-2-2--2-2--2--2-2--2--|--7--7-7-7--5---5-5--0-0-2-2-|
                                                          
----------------------------|----------------------------|
----------------------------|----------------------------|
----------------------------|----------------------------|
--3--3-3-3--3-3--3--3-3--3--|--3--3-3-3--3-3--3--3-3--3--|


                                                          
----------------------------|----------------------------|
----------------------------|----------------------------|
----------------------------|----------------------------|
--2--2-2-2--2-2--2--2-2--2--|--7--7-7-7--5---5-5--0-0-2--|


                                                                
-------------------------------|-------------------------------|
-------------------------------|-------------------------------|
-------------------------------|-------------------------------|
--3-3-3--3-3-3--3-3-3--0-2-3-5-|--3-3-3--3-3-3--3-3-3--0-2-3-5-|


                                                                
--------------------------------|------------------------------|
--------------------------------|------------------------------|
----------------------------5-4-|------------------------------|
--2-2-2--2-2-2--2-2-2-0-2-0-----|--7-7-7--7-7-7--5-5-5--5--12--|


                                                                
-------------------------------|-------------------------------|
-------------------------------|-------------------------------|
-------------------------------|-------------------------------|
--3-3-3--3-3-3--3-3-3--0-2-3-5-|--3-3-3--3-3-3--3-3-3--0-2-3-5-|


                                                           
--------------------------------|-------------------------|
--------------------------------|-------------------------|
----------------------------5-4-|-------------------------|
--2-2-2--2-2-2--2-2-2-0-2-0-----|--7-7-7--7-7-7--5--------|


                                                             
-----------------------------|------------------------------|
-----------------------------|------------------------------|
-----------------------------|------------------------------|
--3--3--3--3--3--3-0-3-5-0-2-|--3--3--3--3--3-0-3-0-3-5-0-3-|


                                                      
--------------------------|--------------------------|
--------------------------|--------------------------|
-----------------4--5--7--|--2--2--4--4--5--5--12----|
--5--5--5--5--5-----------|--------------------------|


                                                             
-----------------------------|------------------------------|
-----------------------------|------------------------------|
-----------------------------|------------------------------|
--3--3--3--3--3--3-0-3-5-0-2-|--3--3--3--3--3-0-3-0-3-5-0-3-|


                                                      
--------------------------|--------------------------|
--------------------------|--------------------------|
-----------------4--5--7--|--2--2--4--4--5--5--12----|
--5--5--5--5--5-----------|--------------------------|


                                                              
------------------------------|------------------------------|
------------------------------|------------------------------|
------------------------------|------------------------------|
--3--3-3-3--0-3--3--3-0-2-3-5-|--3--3-3-3--0-3--3--3-0-2-3-5-|


                                                              
------------------------------|------------------------------|
------------------------------|------------------------------|
--------------------------5-4-|------------------------------|
--2--2-2-2--0-2--2--0-2-0-----|--7--7-7-7--7-5--5--5-0-0-2-2-|


                                                              
------------------------------|------------------------------|
------------------------------|------------------------------|
------------------------------|------------------------------|
--3--3-3-3--0-3--3--3-0-2-3-5-|--3--3-3-3--0-3--3--3-0-2-3-5-|


                                                              
------------------------------|------------------------------|
------------------------------|------------------------------|
--------------------------5-4-|------------------------------|
--2--2-2-2--0-2--2--0-2-0-----|--7--7-7-7--7-5-5--5--0-0-2-2-|


                                                      
--------------------------|--------------------------|
--------------------------|--------------------------|
--------------------------|--------------------------|
--3--3--3--0-3-5-0-3------|--3--3--3--0-3-5-0-3------|


                                                      
--------------------------|--------------------------|
--------------------------|--------------------------|
--------------------------|--------------------------|
--2--2--2--0-2-2-0-2------|--7--7--7--0-2-5-0-5------|


                                                      
--------------------------|--------------------------|
--------------------------|--------------------------|
--------------------------|--------------------------|
--3--3--3--0-3-5-0-3------|--3--3--3--0-3-5-0-3------|


                                                      
--------------------------|--------------------------|
--------------------------|--------------------------|
--------------------------|--------------------------|
--2--2--2--0-2-2-0-2------|--7--7--7--0-2-5-0-5------|


                            
--------------------------||
--------5--7--5-----------||
------5-----------7-5-----||
--3--------------------5--||



linkniwagcn@hotmail.com





Calificar esta versión:
Aviso: Este fichero es trabajo propio de su transcriptor y representa su interpretación personal de la canción. El material contenido en esta página es para exclusivo uso privado, por lo que se prohibe su reproducción o retransmisión, así como su uso para fines comerciales.