N.g.s., Asian Kun Fu Generation (tablatura)

Autor: Dark Link Uchiha | 30748 visualizaciones






Key:  ~ = bending  (ex1. 10~12, bend the string on the tenth fret to play twelve)
		   (ex2. 10~12~10, same as first, but loosen back to the original fret)

ok, the much wanted N.G.S.*

->intro:

E--15--17--15--------------------------------------------------------
B--------------17--15----15--17--15--13----------------13------------
G----------------------------------------14----12--14----------------


and

E--------------------
B--------------------
D--7------------5----
A--5--5--7-5-7--3----
E-----3--5-3-5-------

->verse:

E--------------------
B--------------------
G--------------------
D---7--------5-------
A---5--5--7--3-------
E------3--5----------

or

E--------------------
B--------------------
G--7--------5--------
D--7--5--7--5--------
A--5--5--7--3--------
E--5--3--5--3--------

whatever sounds best on your guitar.

->backup:

E--------------------
B--------------------
G--12--14--7--9------
D--X---X---X--X------
A--10--12--5--7------
E--------------------

this style of play using the A and G strings is used in just about every AK-FG song.

->sometime before solo:

E--15----------------------------------------
B------17--15--13--15----13--15------13------
G--------------------------------14------14--

->solo:

E--------------------------------------------------------------------------------------------
B--------------------------------------------------------------------------------------------
G--9---9---~10------------------9---9-------9---9---------------------------12~14--12~14~12--
D--10--10--~12--10--------------10--10------10--10------10------10--14--14-------------------
A-------------------12--10--12----------12----------12------12-------------------------------
E--------------------------------------------------------------------------------------------

E------------------------------------------15--17----------15--17----------------------------
B--15~17~15--15~17~15--13------13------------------15--17----------15--17--------------------
G--------------------------14----------------------------------------------------------------
D--------------------------------------------------------------------------------------------
A--------------------------------------------------------------------------------------------
E--------------------------------------------------------------------------------------------

->post solo:

E--------------------
B--------------------
G--------------------
D--5--7--------------
A--3--5--5--7--------
E--------3--5--------

and:

E--------------------
B--------------------
G--------------------
D--7--9--5-----------
A--5--7--3--7--------
E-----------5--------

hokay!  dere you go.  end with the verse and:

E--15-----------------------------------------
B------17--15--13--15--13--15------13---------
G------------------------------14------14-----
D---------------------------------------------
A---------------------------------------------
E---------------------------------------------

the ending solo is the same as the intro given with some bending skillz.


linkniwagcn@hotmail.com





Calificar esta versión:
Aviso: Este fichero es trabajo propio de su transcriptor y representa su interpretación personal de la canción. El material contenido en esta página es para exclusivo uso privado, por lo que se prohibe su reproducción o retransmisión, así como su uso para fines comerciales.