Hold Me Tight, Asian Kun Fu Generation (tablatura)

Autor: Dark Link Uchiha | 25963 visualizaciones





INTRO 
-------------------------------------------------------------------- 
-------------------------------------------------------------------- 
-------------------------------------------------------------------- 
-7-7-7-7-7-7-7-7--6-6-6-6-6-6-6-6--4-4-4-4-4-4-4-4--2-2-2-2-2-2-2-2- 
-5-5-5-5-5-5-5-5--4-4-4-4-4-4-4-4--2-2-2-2-2-2-2-2--0-0-0-0-0-0-0-0- 
-------------------------------------------------------------------- 

P.M.-------- - - - 



------------------------------------------------------------------- 
------------------------------------------------------------------- 
------------------------------------------------------------------- 
-7-7-7-7-7-7-7-7--6-6-6-6-6-6-6-6--4-4-4-4-4-4-4-4--2-2-2-2?2-2-2-2 
-5-5-5-5-5-5-5-5--4-4-4-4-4-4-4-4--2-2-2-2-2-2-2-2--0-0-0-0-0-0-0-0 
------------------------------------------------------------------- 

P.M. ------------------------------------------------------| 



---------------------------- 
---------------------------- 
---------------------------- 
----------------------7-7-7-   6x 
-2--4-4-4-4-4--2-2-2--5-5-5- 
-0--2-2-2-2-2--0-0-0-------- 



VERSE I 
------------------------------------ 
------------------------------------ 
------------------------------------ 
----------7-7-7-7--9-9-9-9----------     4x 
-4-4-4-4--5-5-5-5--7-7-7-7--7-7-7-7- 
-2-2-2-2--------------------5-5-5-5- 

P.M. -------- - - - 


VERSE II 
------------------------------------ 
------------------------------------ 
------------------------------------ 
----------7-7-7-7--9-9-9-9----------     4x 
-4-4-4-4--5-5-5-5--7-7-7-7--7-7-7-7- 
-2-2-2-2--------------------5-5-5-5- 

?Let ring? 


CHORUS I 
------------------------------------------------------------------------------ 
------------------------------------------------------------------------------ 
-7-7-7-7-7-7-7-7-7-7-7-7-7-7-7-7---------------------------------------------- 
-7-7-7-7-7-7-7-7-7-7-7-7-7-7-7-7--7-7-7-7-7-7-7-7-7-7-7-7--6--7-7-7-7-7-7-7-7- 
-5-5-5-5-5-5-5-5-5-5-5-5-5-5-5-5--7-7-7-7-7-7-7-7-7-7-7-7--6--7-7-7-7-7-7-7-7- 
----------------------------------5-5-5-5-5-5-5-5-5-5-5-5--7--5-5-5-5-5-5-5-5- 


----------------- 
----------------- 
----------------- 
-7-7-7-7-7-7-7-7-  2x 
-7-7-7-7-7-7-7-7- 
-5-5-5-5-5-5-5-5- 



CHORUS II 
---------------------------------------------------------------------------------- 
---------------------------------------------------------------------------------- 
---------------------------------------------------------------------------------- 
-9-9-9-9-9-9-9-9-9-9-9-9-9-9-9-9--12-12-12-12-12-12-12-12-12-12-12-12-12-12-12-12- 
-7-7-7-7-7-7-7-7-7-7-7-7-7-7-7-7--10-10-10-10-12-12-12-12-12-12-12-12-12-12-12-12- 
---------------------------------------------------------------------------------- 


----------------------------------------------------------------------------------- 
----------------------------------------------------------------------------------- 
----------------------------------------------------------------------------------- 
9-9-9-9-9-9-9-9-9-9-9-9-9-9-9-9--14-14-14-14--16-16-16-16--18-18-18-18--19-19-19-19 
7-7-7-7-7-7-7-7-7-7-7-7-7-7-7-7--12-12-12-12--14-14-14-14--16-16-16-16--17-17-17-17 
----------------------------------------------------------------------------------- 


BRIDGE I 
------------------------------------ 
------------------------------------ 
------------------------------------ 
-7-7-7-7--6-6-6-6--4-4-4-4--2-2-2-2-     2x 
-5-5-5-5--4-4-4-4--2-2-2-2--0-0-0-0- 
-|-|-|----|-|-|----|-|-|----|-|-|--- 
 | | |    | | |    | | |    | | | 
  P.M.     P.M.     P.M.     P.M. 

------------------------------------ 
------------------------------------ 
------------------------------------ 
-7-7-7-7--6-6-6-6--4-4-4-4--2-2-2-2-    2x 
-5-5-5-5--4-4-4-4--2-2-2-2--0-0-0-0- 
------------------------------------ 

?let ring? 

--- 
--- 
--- 
-7- 
-5- 
--- 

?let ring? 

----------------------------------------------------------------------- 
----------------------------------------------------------------------- 
----------------------------------------------------------------------- 
-2~--7-7-7-7-7-7-7-7--6-6-6-6-6-6-6-6--4-4-4-4-4-4-4-4--2-2-2-2?2-2-2-2 
-o~--5-5-5-5-5-5-5-5--4-4-4-4-4-4-4-4--2-2-2-2-2-2-2-2--0-0-0-0-0-0-0-0 
----------------------------------------------------------------------- 
      
    P.M. ------------------------------------------------------| 







INSTRUMENTAL BRIDGE 
---------------------------- 
---------------------------- 
---------------------------- 
----------------------7-7-7-   10x 
-2--4-4-4-4-4--2-2-2--5-5-5- 
-0--2-2-2-2-2--0-0-0-------- 
         (x-x) 
         (x-x) 


BRIDGE II 
------------------------------------------------------ 
------------------------------------------------------ 
------------------------------------------------------ 
-2-----2--6--4-----2--6-/-9-----------------7--4--7--- 
-0--2--0--4--2--4--0--4-/-7--6--4--2--4--4--5--2--5--6 
----0-----------2------------4--2--0--2--2-----------4 


   FINAL CHORUS 
----------------------------------------------------------------------------------- 
----------------------------------------------------------------------------------- 
----------------------------------------------------------------------------------- 
-2-----2--6--4-----2--6-/-9-----------------7--4--7-7-7-7-7-7-7-7-7-7-7--6-6-6-6-6- 
-0--2--0--4--2--4--0--4-/-7--6--4--2--4--4--5--2--5-5-5-5-5-5-5-5-5-5-5--4-4-4-4-4- 
----0-----------2------------4--2--0--2--2----------------------------------------- 


----------------------------------------------------------- 
----------------------------------------------------------- 
----------------------------------------------------------- 
-6-6-6-6-6-6--4-4-4-4-4-4-4-4-4-4-4--2-2-2-2-2-2-2-2-2-2-2- 
-4-4-4-4-4-4--2-2-2-2-2-2-2-2-2-2-2--0-0-0-0-0-0-0-0-0-0-0- 
----------------------------------------------------------- 


------------------------------------ 
------------------------------------ 
------------------------------------ 
-7-7-7-7--6-6-6-6--4-4-4-4--2-2-2-2-     2x 
-5-5-5-5--4-4-4-4--2-2-2-2--0-0-0-0- 
-|-|-|----|-|-|----|-|-|----|-|-|--- 
 | | |    | | |    | | |    | | | 
  P.M.     P.M.     P.M.     P.M. 



----------------------------------- 
----------------------------------- 
-----------------------------------     2x 
7-7-7-7--6-6-6-6--4-4-4-4--2-2-2-2- 
5-5-5-5--4-4-4-4--2-2-2-2--0-0-0-0- 
----------------------------------- 



--------------------------------------------------------------------- 
--------------------------------------------------------------------- 
--------------------------------------------------------------------- 
2--7-7-7-7-7-7-7-7--6-6-6-6-6-6-6-6--4-4-4-4-4-4-4-4--2-2-2-2?2-2-2-2 
0--5-5-5-5-5-5-5-5--4-4-4-4-4-4-4-4--2-2-2-2-2-2-2-2--0-0-0-0-0-0-0-0 
--------------------------------------------------------------------- 

   P.M. --------------------------------------------| 





----------------------------------- 
----------------------------------- 
-----------------------------------     4x 
7-7-7-7--6-6-6-6--4-4-4-4--2-2-2-2- 
5-5-5-5--4-4-4-4--2-2-2-2--0-0-0-0- 
----------------------------------- 


---- 
---- 
---- 
-2~~ 
-0~~ 
----


linkniwagcn@hotmail.com





Calificar esta versión:
Aviso: Este fichero es trabajo propio de su transcriptor y representa su interpretación personal de la canción. El material contenido en esta página es para exclusivo uso privado, por lo que se prohibe su reproducción o retransmisión, así como su uso para fines comerciales.