Denpatou, Asian Kun Fu Generation (tablatura)

Autor: Dark Link Uchiha | 21577 visualizaciones





	|------------------------------------------------------------------|
	|------------------------------------------------------------------|
1st	|------------------------------------------------------------------|
Gtr	|-------------------------------------------------7----------------|
	|-7---------------2---------------4---------------5----------------|
	|-5---------------0---------------2--------------------------------|

	|------------------------------------------------------------------|
	|-------0-2-0-----------0-2-0-----------0-2-0------------0-2-0-----|
2nd	|-2-1-2-------2-1-2-1-2-------2-1-2-1-2-------2-1-2-1-2--------2-1-|
Gtr	|------------------------------------------------------------------|
	|------------------------------------------------------------------|
	|------------------------------------------------------------------| x3



	|------------------------------------------------------------------|
	|------------------------------------------------------------------|
1st	|------------------------------------------------------------------|
Gtr	|-------------------------------------------------7.---------------|
	|-7---------------2---------------4---------------5.---------------|
	|-5---------------0---------------2--------------------------------|

	|------------------------------------------------------------------|
	|-------0-2-0-----------0-2-0-----------0-2-0------------0-2-0-----|
2nd	|-2-1-2-------2-1-2-1-2-------2-1-2-1-2-------2-1-2-1-2--------2-1-|
Gtr	|-------------------------------------------------|--------------|-|
	|-------------------------------------------------|--------------|-|
	|-------------------------------------------------|--------------|-|
							  |              |
							  Mute slightly with the
							  palm of your picking hand.
Verse 0:23 - 0:43

	|------------------------------------------------------------------|
	|------------------------------------------------------------------|
	|------------------------------------------------------------------|
	|-------------------------------------------------7----------------|
	|-7---------------2---------------4-------2-------5----------------|
	|-5---------------0---------------2-------0------------------------| x2



Chorus 0:44 - 0:54

	|------------------------------------------------------------------|
	|------------------------------------------------------------------|
	|------------------------------------------------------------------|
	|-6-------7-------9---------------6-------7-------9---------9------|
	|-4-------5-------7-------7-------4-------5-------7-------7-7------|
	|-------------------------5-------------------------------5--------|



Verse 0:55 - 1:16

	|------------------------------------------------------------------|
	|------------------------------------------------------------------|
1st	|------------------------------------------------------------------|
Gtr	|-------------------------------------------------7----------------|
	|-7---------------2---------------4-------2-------5----------------|
	|-5---------------0---------------2-------0------------------------|

	|------------------------------------------------------------------|
	|-------------------------------------------------------------1412-|
2nd	|-9-7-67--9-7-67--9-7-67--9-7-67--9-7-67--9-7-67--9-7-67--9/14-----|
Guitar	|------------------------------------------------------------------|
	|------------------------------------------------------------------|
	|------------------------------------------------------------------|



	|------------------------------------------------------------------|
	|------------------------------------------------------------------|
1st	|------------------------------------------------------------------|
Gtr	|-------------------------------------------------7----------------|
	|-7---------------2---------------4-------2-------5----------------|
	|-5---------------0---------------2-------0------------------------|

	|------------------------------------------------------------------|
	|------------------------------------------------------------------|
2nd	|-9-7-67--9-7-67--9-7-67--9-7-67--9-7-67--9-7-67--9-7-67--9/14-1614|
Guitar	|------------------------------------------------------------------|
	|------------------------------------------------------------------|
	|------------------------------------------------------------------|



Hook 1:17 - 1:37

	|---------------------------------|
	|---------------------------------|
	|---------------------------------|
	|-6-------7-------9---------------|
	|-4-------5-------7-------7-------|
	|-------------------------5-------| x2



	|------------------------------------------------------------------|
	|------------------------------------------------------------------|
1st	|------------------------------------------------------------------|
Gtr	|-6-------7-------9----------------6-------7-------9---------------|
	|-4-------5-------7-------7--------4-------5-------7-------7-------|
	|-------------------------5--------------------------------5-------|

	|------------------------------------------------------------------|
	|-9------10------------------------9------10------14--12--10-------|
2nd	|------------------------------------------------------------------|
Gtr	|------------------------------------------------------------------|
	|------------------------------------------------------------------|
	|------------------------------------------------------------------|



1:38 - 1:48

	|-------------------------------|
	|-------------------------------|
1st	|-------------------------------|
Gtr	|-7---6---4-------7---6---4-----|
	|-5---4---2---7---5---4---2---7-|
	|-------------5---------------5-|

	|-------------------------------|
	|10------------9-10----------12-|
2nd	|-------------------------------|
Gtr	|-------------------------------|
	|-------------------------------|
	|-------------------------------| x 2



1:56 - 1:59

	|---------|
	|---------|
	|---------|
	|-7-6-4---|
	|-5-4-2-7-|
	|-------5-|



2:00 - 2:21

	|-5-----5-5-----4---4---4-4-------|
	|-7-----7-7-----5---5---5-5-------|
	|-7-----7-7-----6---6---6-6-------|
	|-7-----7-7-----6---6---6-6-------|
	|-5-----5-5-----4---4---4-4-------|
	|-|-------|-------|-------|-------| x 8



2:22 - 2:52

	|---------------------------------|
	|---------------------------------|
	|-7-7-7-7-9-9-9-9-7-7-7-7-6-6-6-6-|
	|---------------------------------|
	|-5-5-5-5-7-7-7-7-5-5-5-5-4-4-4-4-|
	|---------------------------------| x 2



	|---------------------------------|
	|---------------------------------|
1st	|-7-7-7-7-9-9-9-9-7-7-7-7-6-6-6-6-|
Gtr	|---------------------------------|
	|-5-5-5-5-7-7-7-7-5-5-5-5-4-4-4-4-|
	|---------------------------------|

	|-9------------10-9------------10-|
	|---------------------------------|
2nd	|---------------------------------|
Gtr	|---------------------------------|
	|---------------------------------|
	|---------------------------------|



	|---------------------------------|
	|---------------------------------|
1st	|-7-7-7-7-9-9-9-9-7-7-7-7-6-6-6-6-|
Gtr	|---------------------------------|
	|-5-5-5-5-7-7-7-7-5-5-5-5-4-4-4-4-|
	|---------------------------------|

	|---------------------------------|
	|-9----10-9----10-9----10-9-999999|
2nd	|---------------------------------|
Gtr	|---------------------------------|
	|---------------------------------|
	|---------------------------------|



	|---------------------------------|
	|---------------------------------|
1st	|-7-7-7-7-9-9-9-9-7-7-7-7-6-6-6-6-|
Gtr	|---------------------------------|
	|-5-5-5-5-7-7-7-7-5-5-5-5-4-4-4-4-|
	|---------------------------------|

	|99101010-9101010-9101010-91010109|
	|---------------------------------|
2nd	|---------------------------------|
Gtr	|---------------------------------|
	|---------------------------------|
	|---------------------------------|



	|---------------------------------|
	|---------------------------------|
1st	|-7-7-7-7-9-9-9-9-7-7-7-7-6-6-6-6-|
Gtr	|---------------------------------|
	|-5-5-5-5-7-7-7-7-5-5-5-5-4-4-4-4-|
	|---------------------------------|

	|99101010-9101010-9101010-9101010-|
	|---------------------------------|
2nd	|---------------------------------|
Gtr	|---------------------------------|
	|---------------------------------|
	|---------------------------------|



Chorus 2:53 - 3:14

	|---------------------------------|
	|---------------------------------|
	|---------------------------------|
	|---------7-------9---------------|
	|---------5-------7-------7-------|
	|-------------------------5-------|



	|---------------------------------|
	|---------------------------------|
	|---------------------------------|
	|-6-------7-------9---------------|
	|-4-------5-------7-------7-------|
	|-------------------------5-------|



	|------------------------------------------------------------------|
	|------------------------------------------------------------------|
1st	|------------------------------------------------------------------|
Gtr	|-6-------7-------9----------------6-------7-------9---------------|
	|-4-------5-------7-------7--------4-------5-------7-------7-------|
	|-------------------------5--------------------------------5-------|

	|------------------------------------------------------------------|
	|-9------10------------------------9------10------14------10-------|
2nd	|------------------------------------------------------------------|
Gtr	|------------------------------------------------------------------|
	|------------------------------------------------------------------|
	|------------------------------------------------------------------|



3:15 - 3:30

	|-------------------------------|
	|-------------------------------|
1st	|-------------------------------|
Gtr	|-7---6---4-------7---6---4-----|
	|-5---4---2---7---5---4---2---7-|
	|-------------5---------------5-|

	|-------------------------------|
	|10-----------9--10----------12-|
2nd	|-------------------------------|
Gtr	|-------------------------------|
	|-------------------------------|
	|-------------------------------| x2



	|-------------------|
	|-------------------|
1st	|-------------------|
Gtr	|-------------------|
	|-7-----------7-----|
	|-5-----------5-----|

	|-------------------|
	|-------0-2-0-------|
2nd	|-2-1-2-------2-1-2-|
Gtr	|-------------------|
	|-------------------|
	|-------------------|





Calificar esta versión:
Aviso: Este fichero es trabajo propio de su transcriptor y representa su interpretación personal de la canción. El material contenido en esta página es para exclusivo uso privado, por lo que se prohibe su reproducción o retransmisión, así como su uso para fines comerciales.