Ai No Uta, Asian Kun Fu Generation (tablatura)

Autor: Dark Link Uchiha | 44086 visualizaciones






Intro (0:00 - 0:13)

	|-0---0--00-0-0-1---1-1---1-1-1-1-0---0--00-0-0-3---3-3---3-3-3-0-|
	|-1---1--13-1-1-1---1-1---1-1-1-1-1---1--13-1-1-1---1-1---1-1-1-1-|
	|-0---0--00-0-0-0---0-0---0-0-0-0-2---2--22-2-2-2---2-2---2-2-2-2-|
	|-2---2--22-2-2-2---2-2---2-2-2-2-2---2--22-2-2-2---2-2---2-2-2-2-|
	|-3---3--33-3-3-3---3-3---3-3-3-3-0---0--00-0-0-0---0-0---0-0-0-0-|
	|-|---|---|---|---|---|---|---|---|---|---|---|---|---|---|---|---|
          |   |   |   |   |   |   |   |   |   |   |   |   |   |   |   |    


	|-0---0--00-0-0-1---1-1---1-1-1-1-0---0--00-0-0-3-|
	|-1---1--13-1-1-1---1-1---1-1-1-1-1---1--13-1-1-3-|
	|-0---0--00-0-0-0---0-0---0-0-0-0-2---2--22-2-2-0-|
	|-2---2--22-2-2-2---2-2---2-2-2-2-2---2--22-2-2-0-|
	|-3---3--33-3-3-3---3-3---3-3-3-3-0---0--00-0-0-2-|
	|-|---|---|---|---|---|---|---|---|---|---|---|-3-|
          |   |   |   |   |   |   |   |   |   |   |   |


1st Bridge (0:13 - 0:26)

	|-----------------------------------------------------------------|
	|-----------------------------------------------------------------|
1st	|-5---------------------------------------------------------------|
Guitar	|-5-------------------------------7---------------5---------------|
	|-3-------------------------------7---------------5---------------|
	|-|---|---|---|---|---|---|---|---5---|---|---|---3---|---|---|---|
	  |   |   |   |   |   |   |   |   |   |   |   |   |   |   |   |

	|-----------------------------------------------------------------|
	|-------------------------------------------------2/5-7-9*--9-7-9-|
2nd	|-5-5-5-5-5-5-5-5-4-4-4-4-4-4-4-4-2-2-2-2-2-2-2-2-----------------|
Guitar	|-----------------------------------------------------------------|
	|-----------------------------------------------------------------|
	|-|---|---|---|---|---|---|---|---|---|---|---|---|---|---|---|---|
	  |   |   |   |   |   |   |   |   |   |   |   |   |   |   |   |

								 * Bend to 10 (don't bend
								   down with the next 9,
								   the next one is a new 9)

	|-----------------------------------------------------------------|
	|-----------------------------------------------------------------|
1st	|-5---------------------------------------------------------------|
Guitar	|-5-------------------------------7---------------5---------------|
	|-3-------------------------------7---------------5---------------|
	|-|---|---|---|---|---|---|---|---5---|---|---|---3---|---|---|---|
	  |   |   |   |   |   |   |   |   |   |   |   |   |   |   |   |

	|-----------------------------------------------------------------|
	|-------------------------------------------------5/7-8-8---------|
2nd	|-5-5-5-5-5-5-5-5-4-4-4-4-4-4-4-4-2-2-2-2-2-2-2-2-----------------|
Guitar	|-----------------------------------------------------------------|
	|-----------------------------------------------------------------|
	|-|---|---|---|---|---|---|---|---|---|---|---|---|---|---|---|---|
	  |   |   |   |   |   |   |   |   |   |   |   |   |   |   |   |


1st Verse (0:26 - 0:39)

	|---|
	|---|
	|-5-|
	|-5-|
	|-3-|
	|-|-|
	  |

	|--------|
	|--------|
	|--Bass--|
	|--------|
	|--------|


Chorus (0:39 - 0:52)

	|----------------------------------------------------------------:|
	|----------------------------------------------------------------:|
1st	|-5--------------------------------------------------------------:|
Guitar	|-5-------------------------------7---------------5--------------:|
	|-3-------------------------------7---------------5--------------:|
	|-|---|---|---|---|---|---|---|---5---|---|---|---3---|---|---|--:|
	  |   |   |   |   |   |   |   |   |   |   |   |   |   |   |   |
									 : x 2
Bridge 2 (0:52 - 1:17)

	|-----------------------------------------------------------------|
	|-----------------------------------------------------------------|
1st	|-------------------------5---5---7---7---9---9-----------5-------|
Guitar	|-3---3---5---5---7---7---5---5---7---7---9---9---7-------5-------|
	|-3---3---5---5---7---7---3---3---5---5---7---7---7-------3-------|
	|-1---1---3---3---5---5---|---|---|---|---|---|---5---|---|-------|
	  |   |   |   |   |   |   |   |   |   |   |   |   |   |   |

	|-----------------------------------------------------------------|
	|-----------------------------------------------------------------|
1st	|-------------------------5---5-----------------------------------|
Guitar	|-3---3---5---5---7---7---5---5---3-------3-------5-------5-------|
	|-3---3---5---5---7---7---3---3---3-------3-------5-------5-------|
	|-1---1---3---3---5---5---|---|---1---|---1---|---3---|---3---|---|
	  |   |   |   |   |   |   |   |   |   |   |   |   |   |   |   |


	|-----------------|
The	|-----------------|
trick	|-----------------|
at the	|---------0-2-0---|
end	|-----0-3-------3-|
	|-0/3-------------|


Chorus 2 (1:17 - 1:46)

	|-------------------------------|
	|-------------------------------|
1st	|-5---5---7---5-----------------|
Guitar	|-5---5---5---5---7---5---3---3-|
	|-3---3---3---3---7---5---3---3-|
	|-|---|---|---|---5---3---1---1-|
	  |   |   |   |   |   |   |   |

	|---------------------------------------|
	|---------------------------------------|
1st	|-5---5---7---5-------------------------|
Guitar	|-5---5---5---5---7---5---3---3---3.3.3-|
	|-3---3---3---3---7---5---3---3---3.3.3-|
	|-|---|---|---|---5---3---1---1---1.1.1-|
	  |   |   |   |   |   |   |   |   |   |

Solo (1:46 - 2:00)

	|-------------------------------------------------|
	|-------------------------------------------------|
Solo	|-7---7-7-7-7-7-7-5---5-5---5-5---4---4-4---4-5p4-|
Guitar	|-------------------------------------------------|
	|-------------------------------------------------|
	|-|---|---|---|---|---|---|---|---|---|---|---|---|
	  |   |   |   |   |   |   |   |   |   |   |   |



	|-------------------------------------------------|
	|-------------------------------------------------|
Solo	|-------------------------------------------------|
Guitar	|-5---5-5-----5h7-5---5-5---3-3-3-3-2-2-0---2-----|
	|-------------------------------------------------|
	|-|---|---|---|---|---|---|---|---|---|---|---|---|
	  |   |   |   |   |   |   |   |   |   |   |   |





	|-------------------------------------------------|
	|-------------------------------------------------|
Solo	|---------------------5-7-5---4h5-----------------|
Guitar	|-3-----5-----5----*7-----------------------------|
	|-------------------------------------------------|
	|-|---|---|---|---|---|---|---|---|---|---|---|---|
	  |   |   |   |   |   |   |   |   |   |   |   |
			   *Slide quickly from 5


2nd Verse


	|-0---0---0---0---0---0---3---3-:|
	|-1---1---1---1---1---1---3---3-:|
Acoustic|-0---0---0---0---2---2---0---0-:|
Guitar	|-2---2---2---2---2---2---0---0-:|
	|-3---3---3---3---0---0---2---2-:|
	|-|---|---|---|---|---|---3---3-:|
	  |   |   |   |   |   |   |   |
					: x 2


Chorus3 (2:12 - 2:24)

	|----------------------------------------------------------------|
	|----------------------------------------------------------------|
1st	|-5--------------------------------------------------------------|
Guitar	|-5-------------------------------7---------------5--------------|
	|-3-------------------------------7---------------5--------------|
	|-|---|---|---|---|---|---|---|---5---|---|---|---3---|---|---|--|
	  |   |   |   |   |   |   |   |   |   |   |   |   |   |   |   |

	|----------------------------------------------------|
	|----------------------------------------------------|
	|-5--------------------------------------------------|
	|-5-------------------------------7---------------5.-|
	|-3-------------------------------7---------------5.-|
	|-|---|---|---|---|---|---|---|---5---|---|---|---3.-|
	  |   |   |   |   |   |   |   |   |   |   |   |   |


Chorus 2 (2:24 - 2:54)

	|-------------------------------|
	|-------------------------------|
1st 	|-5---5---7---5-----------------|
Guitar	|-5---5---5---5---7---5---3---3-|
	|-3---3---3---3---7---5---3---3-|
	|-|---|---|---|---5---3---1---1-|
	  |   |   |   |   |   |   |   |

	|---------------------------------------|
	|---------------------------------------|
	|-5---5---7---5-------------------------|
	|-5---5---5---5---7---5---3---3---3.3.3-|
	|-3---3---3---3---7---5---3---3---3.3.3-|
	|-|---|---|---|---5---3---1---1---1.1.1-|
	  |   |   |   |   |   |   |   |   |   |


Muffed with picking hand palm. (2:54 - 3:06)

	|-----------------------------------------------------------------|
	|-----------------------------------------------------------------|
1st	|-5-5-5-5-5-5-5-5-7-7-7-7-7-7-7-7---------------------------------|
Guitar	|-5-5-5-5-5-5-5-5-5-5-5-5-5-5-5-5-7-7-7-7-7-7-7-7-5-5-5-5-5-5-5-5-|
	|-3-3-3-3-3-3-3-3-3-3-3-3-3-3-3-3-7-7-7-7-7-7-7-7-5-5-5-5-5-5-5-5-|
	|-|---|---|---|---|---|---|---|---5-5-5-5-5-5-5-5-3-3-3-3-3-3-3-3-|
	  |   |   |   |   |   |   |   |   |   |   |   |   |   |   |   |

	|-----------------------------------------------------------------|
	|-----------------------------------------------------------------|
Acoustic|-----------------------------------------------------------------|
Guitar	|-----------------------------------------------------------------|
	|-----------------------------------------------------------------|
	|-|---|---|---|---|---|---|---|---|---|---|---|---|---|---|---|---|
	  |   |   |   |   |   |   |   |   |   |   |   |   |   |   |   |

	|-----------------------------------------------------------------|
	|-----------------------------------------------------------------|
1st	|-5-5-5-5-5-5-5-5-7-7-7-7-7-7-7-7---------------------------------|
Guitar	|-5-5-5-5-5-5-5-5-5-5-5-5-5-5-5-5-7-7-7-7-7-7-7-7-5-5-5-5-5-5-5-5-|
	|-3-3-3-3-3-3-3-3-3-3-3-3-3-3-3-3-7-7-7-7-7-7-7-7-5-5-5-5-5-5-5-5-|
	|-|---|---|---|---|---|---|---|---5-5-5-5-5-5-5-5-3-3-3-3-3-3-3-3-|
	  |   |   |   |   |   |   |   |   |   |   |   |   |   |   |   |

	|-0---0-0---0-0-0-0---0-0---0-0-0-0---0-0---0-0-0-3---3-3---3-3-3-|
	|-1---1-1---1-1-1-1---1-1---1-1-1-1---1-1---1-1-1-3---3-3---3-3-3-|
Acoustic|-0---0-0---0-0-0-0---0-0---0-0-0-2---2-2---2-2-2-0---0-0---0-0-0-|
Guitar	|-2---2-2---2-2-2-2---2-2---2-2-2-2---2-2---2-2-2-0---0-0---0-0-0-|
	|-3---3-3---3-3-3-3---3-3---3-3-3-0---0-0---0-0-0-2---2-2---2-2-2-|
	|-|---|---|---|---|---|---|---|---|---|---|---|---3---3-3---3-3-3-|
	  |   |   |   |   |   |   |   |   |   |   |   |   |   |   |   |   |


Chorus (3:06 - 3:33)

	|----------------------------------------------------------------:|
	|----------------------------------------------------------------:|
1st	|-5--------------------------------------------------------------:|
Guitar	|-5-------------------------------7---------------5--------------:|
	|-3-------------------------------7---------------5--------------:|
	|-|---|---|---|---|---|---|---|---5---|---|---|---3---|---|---|--:|
	  |   |   |   |   |   |   |   |   |   |   |   |   |   |   |   |
									 : x 4

Outro  (3:33 - end)

	|-------------------------------------------------|
	|-------------------------------------------------|
1st	|-5-----------------------------------------------|
Guitar	|-5-----------------------------------------------|
	|-3-----------------------------------------------|
	|-|---|---|---|---|---|---|---|---|---|---|---|---|
	  |   |   |   |   |   |   |   |   |   |   |   |


	|-------------------------------------------------|
	|------------5-----------5-----------5------------|
2nd	|-5-----------5-----------5-----------5-----------|
Guitar	|-------------------------------------------------|
	|-------------------------------------------------|
	|-|---|---|---|---|---|---|---|---|---|---|---|---|
	  |   |   |   |   |   |   |   |   |   |   |   |





Calificar esta versión:
Aviso: Este fichero es trabajo propio de su transcriptor y representa su interpretación personal de la canción. El material contenido en esta página es para exclusivo uso privado, por lo que se prohibe su reproducción o retransmisión, así como su uso para fines comerciales.