When The Sun Goes Down, Arctic Monkeys (tablatura)

Autor: aori_moni | 22400 visualizaciones



Las x dice q no se presiona nada mas se coloca los dedos en esos trastes...

e|-7-7x--6-6x--7-7x--2-2x--7-7x-2-2x-4-
B|-7-7x--8-8x--9-9x--4-4x--9-9x-4-4x-5-
G|-8-8x--6-6x--8-8x--3-3x--8-8x-3-3x-6-
D|-9-9x--8-8x--9-9x--4-4x--9-9x-4-4x-6-
A|-9-9x--6-6x--7-7x--2-2x--7-7x-2-2x-4-
E|-7-7x--6-6x--7-7x--2-2x--7-7x-2-2x---

esta parte es rapido ahi encuentrenle
e|-9--7-6-4-7- 
B|-9--7-7-5-7-   se repite desde lo de arriba dos veces
G|-11-9-8-6-8-
D|-11-9-8-6-8-
A|-9--7-6-4-6-
E|------------

e|--7--6--7--2--11--6---44--66--77--9---
B|--7--8--9--4--12--7---55--77--77--9---
G|--8--6--8--3--13--8---66--88--99--11--
D|--9--8--9--4--13--8---66--88--99--11--
A|--9--6--7--2--11--6---44--66--77--9---
E|--7-----7--2--------------------------

G|---|
D|-5-|
A|-5-|
E|-3-|

G|-----4-4x-4x-4x------4-4-4-4------4-4-4-4-------4-
D|-5-4-4-4x-4x-4x--5-4-4-4-4-4--5-4-4-4-4-4---5-4-4-
A|-5-4-2-2x-2x-2x--5-4-2-2-2-2--5-4-2-2-2-2---5-4-2-
E|-3-2-------------3-2----------3-2-----------3-2---
    aki ustedes    aki va pausado   aki es mas fluido
    vean cuantas veces

D|----------------0-2-4-
A|------------2-2-------  x4 a lo mejor son otras dos ahi vean
E|-3-3-2-2--2-----------


Verso
 ahi vena hay un silencio como de 4 tiempos
despues sigue esto 
G|-4-4-4-4-
D|-4-4-4-4-
A|-2-2-2-2-
E|---------

coro
G|-9-9-9-11-11-11-------------    -9-4-
D|-9-9-9-11-11-11-9-9-7-9-9-9-    -9-4-
A|-7-7-7-9--9--9--9-9-7-9-9-9- x4 -7-2-
E|----------------7-7-5-7-7-7-    -----

verso:

G|-4-4-4-4-
D|-4-4-4-4-
A|-2-2-2-2-
E|---------

D|----------------0-2-4-
A|------------2-2-------  x4 
E|-3-3-2-2--2-----------

la otra lira hace lo mismo pero con acorde cinco

coro
G|-9-9-9-11-11-11-------------    -9-4-
D|-9-9-9-11-11-11-9-9-7-9-9-9-    -9-4-
A|-7-7-7-9--9--9--9-9-7-9-9-9- x8 -7-2-
E|----------------7-7-5-7-7-7-    -----

cambia a guitarra limpia


e|--7--6--7--2--11--6---44--66--77--9---
B|--7--8--9--4--12--7---55--77--77--9---
G|--8--6--8--3--13--8---66--88--99--11--
D|--9--8--9--4--13--8---66--88--99--11--
A|--9--6--7--2--11--6---44--66--77--9---
E|--7-----7--2--------------------------

e|-10-9--7-
B|-11-10-7-
G|-11-11-8-
D|----11-9-
A|----9--9-
E|-------7-

fiin





Comentarios del colaborador: dudas comentenlas, o contactenme....soy mujer!! no soy men ni brooo porq en la de maps asi me pusieron, y buenas y sobretodo malas anotaciones sean bienvenidas

Calificar esta versión:
Aviso: Este fichero es trabajo propio de su transcriptor y representa su interpretación personal de la canción. El material contenido en esta página es para exclusivo uso privado, por lo que se prohibe su reproducción o retransmisión, así como su uso para fines comerciales.