Teddy Picker (intro), Arctic Monkeys (tablatura)

Autor: marko_92 | 18914 visualizaciones



E|----------------------------------------|
B|----------------------------------------|
G|----------------------------------------|
D|----------------------------------------|
A|-----6-5-------6-5-------6-5-------6-5--|
E|-5-5-----4-5-5-----4-5-5-----4-5-5------|

E|----------------------------------------|
B|----------------------------------------|
G|----------------------------------------|
D|----------------------------------------|
A|--------------------3-----6-5-------6-5-|
E|-5-0-0-4-0--0-0-4-0---5-5-----4-5-5-----|

E|----------------------------------------|
B|----------------------------------------|
G|----------------------------------------|
D|----------------------------------------|
A|-----6-5-------6-5-------6-5-------6-5--|
E|-5-5-----4-5-5-----4-5-5-----4-5-5------|

la ultima parte se repite varias veces, escuchar el tema y fijence cuantas veces lo hace hasta q viene una parte q toca eso

E|----|
B|----|
G|-14-| 
D|-14-|
A|-12-|
E|----|

bue..hasta aca los puedo ayudar ;)
suerte





Calificar esta versión:
Aviso: Este fichero es trabajo propio de su transcriptor y representa su interpretación personal de la canción. El material contenido en esta página es para exclusivo uso privado, por lo que se prohibe su reproducción o retransmisión, así como su uso para fines comerciales.