Crying Lightning, Arctic Monkeys (bajo)

Autor: Tyrano | 44269 visualizaciones



La Intro
G|----------------------------------------------------------------------| 
D|---------------------------6------------------------------------------| 
A|0-0--0/8-8~----0-0--0/7-7-8----0-0--0/10-10-10\3-3---3--0-2-3---------| 
E|------------------------------------------------------4---------------| x2

Verso 1: Outside the Cafe by the cracker factory...
G|----------------------------------------------------------------------| 
D|---------------------------6------------------------------------------| 
A|0-0--0/8-8~----0-0--0/7-7-8----0-0--0/10-10-10\3-3---3--0-2-3---------| 
E|------------------------------------------------------4---------------| x4

Verso 2: Your past Time consisted of the stranged... 
G|--------------|    |------------------|   
D|--------------|    |------------------|    
A|-------7-6----|    |---7---6-------6--|    
E|5-5--8-----4--| x4 |-8---4---5-8-7----| x3 

Verso 3: The next time that...
G|----------------------------------------------------------------------| 
D|---------------------------6------------------------------------------| 
A|0-0--0/8-8~----0-0--0/7-7-8----0-0--0/10-10-10\3-3---3--0-2-3---------| 
E|------------------------------------------------------4---------------|
x2

Verso 4: Wild folded arms you occupy...
G|----------------------------------------------------------------------| 
D|---------------------------6------------------------------------------| 
A|0-0--0/8-8~----0-0--0/7-7-8----0-0--0/10/8/7/5---3-3-3--0-2-3---------| 
E|------------------------------------------------------4---------------|
x2

Coro: Your past Time consisted of the stranged... 
G|-------------------------------------------------------------------| 
D|-------------------------------------------------------------------|
A|---------------3-5-5-5-5-8-7-5-7--------------------------10-8-7-5-| 
E|-1-1-1-1-1-0-1--------------------5-5-5-5-5-5-5-5-5-5-5-5----------| 

G|-------------------------------------------------------------------| 
D|-------------------------------------------------------------------| 
A|---------------3-5-5-5-5-8-7-5-7------------7-6--------------------| 
E|-1-1-1-1-1-0-1--------------------5-5-5-5-8-----4-5-5-5-5-5-5-0-0--| 

G|-------------------------------------------------------------------| 
D|-------------------------------------------------------------------|
A|---------------3-5-5-5-5-8-7-5-7--------------------------10-8-7-5-| 
E|-1-1-1-1-1-0-1--------------------5-5-5-5-5-5-5-5-5-5-5-5----------| 

G|-------------------------------------------------------------------| 
D|-------------------------------------------------------------------| 
A|---------------3-5-5-5-5-8-7-5-7-----------------------------------| 
E|-1-1-1-1-1-0-1--------------------5/-------------------------------| 

Solo de Guitarra:
G|-----------------|    |------------------|    |------------| 
D|-----------------|    |------------------|    |------------| 
A|----------7-6----|    |---7---6-------6--|    |---7---6----| 
E|5-5-5-5-8-----4--| x4 |-8---4---5-8-7----| x3 |-8---4---5~~| x1 

Coro 2: Cryin' Lightnin', Cryin' Lightnin'...
G|-------------------------------------------------------------------| 
D|-------------------------------------------------------------------|
A|---------------3-5-5-5-5-8-7-5-7--------------------------10-8-7-5-| 
E|-1-1-1-1-1-0-1--------------------5-5-5-5-5-5-5-5-5-5-5-5----------| 

G|-------------------------------------------------------------------| 
D|-------------------------------------------------------------------| 
A|---------------3-5-5-5-5-8-7-5-7------------7-6--------------------| 
E|-1-1-1-1-1-0-1--------------------5-5-5-5-8-----4-5-5-5-5-5-5-0-0--|  

G|-------------------------------------------------------------------| 
D|-------------------------------------------------------------------|
A|---------------3-5-5-5-5-8-7-5-7--------------------------10-8-7-5-| 
E|-1-1-1-1-1-0-1--------------------5-5-5-5-5-5-5-5-5-5-5-5----------| 

G|-------------------------------------------------------------------| 
D|-------------------------------------------------------------------| 
A|---------------3-5~------------------------------------------------| 
E|-1-1-1-1-1-0-1-----------------------------------------------------|


[**** F  I  N ****]





Comentarios del colaborador: Me gustó mucho como quedó esta Tab, a pesar de ser la primera que hago espero que sea de ayuda para quien quiera tocar este tema que es bastante bueno y que me gusta mucho ;). Esta Tab yo mismo la hice, de hecho, es como yo toco esta canción y me parece que es muy acorde a como es, seguramente está al 100% pero me equivoqué al escribirlo como Tab. xD Cualquier cosa que puedan añadir/corregir/reclamar a mi correo que sale arriba de la Tab. Tyrano.

Calificar esta versión:
Aviso: Este fichero es trabajo propio de su transcriptor y representa su interpretación personal de la canción. El material contenido en esta página es para exclusivo uso privado, por lo que se prohibe su reproducción o retransmisión, así como su uso para fines comerciales.