Brianstorm, Arctic Monkeys (tablatura)

Autor: xaul182 | 29470 visualizaciones



afinación E-B-G-D-A-E

GUITARRA 1:
E------------------------------- X4
B-------------------------------
G-------------------------------
D-------------------------------
A-------------------------------
E-1111112-11112-11112-11112-----

GUITARRA 2:
E-------------------------------
B-------------------------------  X2
G-------------------------------
D-------------------------------
A-88888---888888----------------
E------9-8------9-8-------------


TOCA SOLO UNA GUITARRA:

E----------------------------------  X1
B----------------------------------
G----------------------------------
D----------------------------------
A-888-4-33-44-6-7-10---------------
E----------------------------------

E----------------------------------
B----------------------------------
G-10-6-5-66-8-9-12-----------------
D-10-6-5-66-8-9-12-----------------
A-8--4-3-44-6-7-10-----------------
E----------------------------------

E-----------------------------------
B-----------------------------------
G-----------------------------------
D-----------------------------------
A-8-4-3-44-6-7-10-------------------
E-----------------------------------





Comentarios del colaborador: :DDDD

Calificar esta versión:
Aviso: Este fichero es trabajo propio de su transcriptor y representa su interpretación personal de la canción. El material contenido en esta página es para exclusivo uso privado, por lo que se prohibe su reproducción o retransmisión, así como su uso para fines comerciales.