A Certain Romance, Arctic Monkeys (tablatura)

Autor: polaxxxo | 23974 visualizaciones



|------11--11--11-11-11-14-14-14-11--11-11--16-16-16-11--11-11--18--18-18-18-| 
|----------------------------------------------------------------------------| 
|----------------------------------------------------------------------------| 
|----------------------------------------------------------------------------| 
|----------------------------------------------------------------------------| 
|----------------------------------------------------------------------------| 
 
|--14-------------------9-------9-------------------------------------11--11-| 
|-----12--12--12-12-12----12-9----12-9--12--12-12----------------------------| 
|--------------------------------------------------12-12-12-12--12-11--------| 
|----------------------------------------------------------------------------| 
|----------------------------------------------------------------------------| 
|----------------------------------------------------------------------------| 
|----------------------------------------------------------------------------| 
 
|--11-11-11-14-14-14-11--11-11--16-16-16-11--11-11--18--18-18-18--14--------| 
|-------------------------------------------------------------------12--12--| 
|---------------------------------------------------------------------------| 
|---------------------------------------------------------------------------| 
|---------------------------------------------------------------------------| 
|---------------------------------------------------------------------------| 
 
|-----------9-------9-------------------------------------------------------| 
|12-12-12----12-9----12-9--12--12-12----------------------------------------| 
|------------------------------------12-12-12-12--12-11---------------------| 
|---------------------------------------------------------------------------| 
|---------------------------------------------------------------------------| 
|---------------------------------------------------------------------------| 





Calificar esta versión:
Aviso: Este fichero es trabajo propio de su transcriptor y representa su interpretación personal de la canción. El material contenido en esta página es para exclusivo uso privado, por lo que se prohibe su reproducción o retransmisión, así como su uso para fines comerciales.