I Will Live Again, Arch Enemy (tablatura)

Autor: 666Krizz | 31086 visualizaciones



.-----19-17-15-14----14----15-17-19-14
.--17-------------17------------------
.-------------------------------------    (x2)
.-------------------------------------
.-------------------------------------
.-------------------------------------

(pre coro x2) 1
.---------------------------------------------------------------
.---------------------------------------------------------------
.---------------------------------------------------------------
.---------------------------------------------------------------
.77777777777777-999999-11.11.11.11.11.11.11-11.11.11.11.11.11.11
.55555555555555-666666-9  9  9  9  9  9  9 -11.11.11.11.11.11.11


.---------------------------
.---------------------------
.---------------------------
.---------------------------
.11.11.11.11.11.11.11-999999
.9  9  9  9  9  9  9--666666

(pre coro x2) 2

.-----------------------------------------------
.-----------------------------------------------
.-----------------------------------------------
.-----------------------------------------------
.000-0000-3-5-000-0000-7-5-000-0000-3-5-000-0000
.000-0000-3-5-000-0000-7-5-000-0000-3-5-000-0000


(coro)

.------------------------------------------------------
.------------------------------------------------------
.------------------------------------------------------ (x2)
.------------------------------------------------------
.99-777-00-77-555-00-55-333--99-777-00-77-555-00-55-333
.77-555-00-55-333-00-33-111--77-555-00-55-333-00-33-111


.---------------------
.---------------------
.---------------------
.-7-5-3-2---2--3-5-7-2
.5--------5-----------
.---------------------

(pre coro x2) 2

.-----------------------------------------------
.-----------------------------------------------
.-----------------------------------------------
.-----------------------------------------------
.000-0000-3-5-000-0000-7-5-000-0000-3-5-000-0000
.000-0000-3-5-000-0000-7-5-000-0000-3-5-000-0000

(coro)

.------------------------------------------------------
.------------------------------------------------------
.------------------------------------------------------ (x2)
.------------------------------------------------------
.99-777-00-77-555-00-55-333--99-777-00-77-555-00-55-333
.77-555-00-55-333-00-33-111--77-555-00-55-333-00-33-111


.---------------------
.---------------------
.---------------------
.-7-5-3-2---2--3-5-7-2
.5--------5-----------
.---------------------


y el solo se los dejo a ustedes por que hasta ahi numas se
gracias por tomarse el tiempo para leerla
es mi primera cancion sacada por mi
espero que les guste 
chau
VIVA EL METAL!





Calificar esta versión:
Aviso: Este fichero es trabajo propio de su transcriptor y representa su interpretación personal de la canción. El material contenido en esta página es para exclusivo uso privado, por lo que se prohibe su reproducción o retransmisión, así como su uso para fines comerciales.