Y Volvere, Antologia (tablatura)

Autor: hebert rojas | 18424 visualizaciones



AFINACION: e b g D A E  (Standard)

INTRO
e)-----------9v----------|-------------------------|
B)----9-10-12--12-10-9---|-----9-10-12v--10-9------|
G)-11-----------------9v-|-9-11-------------9-11v--|
D)-----------------------|-------------------------|
A)-----------------------|-------------------------|
E)-----------------------|-------------------------|

e)------------------------|
B)------------------------|
G)--------2-4-2-----------|
D)-----2-4-----4-2--------|
A)--2-4-----------4-2-4---|
E)---------------------2--|

Volveré por ti
fa#m          LA
le dije al partir.
     MI
Con una canción escrita para ti.
   fa#m      RE        LA     fa#m
esta version es tambien igual que la anterior es la mas


e)------------------|
G)------------------|
B)--------2---------|
D)-----2-4-4-2-2^4--|
A)--2-4-------4-----|
E)------------------|


Y tu al mirarme
          MI
se que lloraras
fa#m
pues tu corazón
DO#m        Sim
No me olvidara
fa#


(coro)

Y volveré
fam#    LA
abrasarte muy fuerte a mi pecho y fundirme en tu piel.
               LA                                MI
Me hundiré en tus brazos, en tus tiernos brazos rendido de amor
Sim                                         LA               Fa#m
y te amare, y te amare.
LA              Fa#m

(Bis coro)


e)-7/9---7-9---9-10-12-10-9/7-77^10-|-7/9---7-9---9-10-12-9-12-12-17-16-|
B)-9/10--9-10-----------------------|-9/10--9-10------------------------|
G)----------------------------------|-----------------------------------|
D)----------------------------------|-----------------------------------|
A)----------------------------------|-----------------------------------|
E)----------------------------------|-----------------------------------|

e)---------------------------------------------|-------------------|
B)--1414tt^12--12-12/10------------------------|--------10v--------|
G)---------------------11-----9-11-9----9-11v--|----9-11---11/9----|
D)--------------------------12--------12-------|--12-----------11--|
A)---------------------------------------------|-------------------|
E)---------------------------------------------|-------------------|


e)----------------------9---------|
B)------9-12-9-12v--9-12----------|
G)--9-11-------------------11.----|
D)--------------------------------|
A)--------------------------------|
E)--------------------------------|





Calificar esta versión:
Aviso: Este fichero es trabajo propio de su transcriptor y representa su interpretación personal de la canción. El material contenido en esta página es para exclusivo uso privado, por lo que se prohibe su reproducción o retransmisión, así como su uso para fines comerciales.