Mentiras, Antologia (tablatura)

Autor: Anónimo | 25799 visualizaciones



Hola amigos, aquí les dejo la tablatura
original de mentiras, tmb hay que respetar las pausas que tiene
la canción y nos sonara muucho mejor.. Espero les guste ......
.... Joao Áandréeíí

e/|--9-7------------||---------------------------------------|
B/|-----10-10-10/9--||----------7-7/9----------7-7/9---7/9-5-|
G/|-9-------------9-||-7-6-7-7/9------7-6-7-7/9--------------|
D/|-----------------||---------------------------------------|
A/|-----------------||---------------------------------------|
E/|-----------------||---------------------------------------|

e/|-9-7-------12V--10-9-10-7--10-9-10-7--||-14/16-12-|
B/|----10-10-9--------------7----------7-||----------|
G/|-9------------------------------------||----------|
D/|--------------------------------------||----------|
A/|--------------------------------------||----------|
E/|--------------------------------------||----------|

Mentira
FA#m
que me amaste con toda ternura
      LA                 MI
y que entregaste toda tu inocencia, mentiraa
      RE                 LA          MI

Mentira
FA#m
que me diste todo en un beso
      LA                  MI
y que juraste amarme por siempre,mentiraaa
      RE                 LA         MI

ya veras que todo lo que haces se paga en la vida
     LA                                       MI
y sentirás,como duele el alma cuando se marchita sangra mi agonía
      RE                               LA                   MI
ya veras que todo lo que haces se paga en la vida
     LA                                       MI
y sentiras,como duele el alma cuando se marchita sangra mi agonia
      RE                               LA                   MI
por la herida
          FA#m

e/|--9-7------------||---------------------------------------|
B/|-----10-10-10/9--||----------7-7/9----------7-7/9---7/9-5-|
G/|-9-------------9-||-7-6-7-7/9------7-6-7-7/9--------------|
D/|-----------------||---------------------------------------|
A/|-----------------||---------------------------------------|
E/|-----------------||---------------------------------------|

e/|-9-7-------12V--10-9-10-7--10-9-10-7--||-14/16-12-|
B/|----10-10-9--------------7----------7-||----------|
G/|-9------------------------------------||----------|
D/|--------------------------------------||----------|
A/|--------------------------------------||----------|
E/|--------------------------------------||----------|

Me esconderé
FA#m
mi tristeza al verte ajena
      LA              MI
recordando lo que hemos vivido,asi me ireee
      RE                 LA         MI

Y lloraras
FA#m
aunque huyas a lo infinito
      LA              MI
Pero un milagro de vida ha quedado entre los dos
      RE                 LA                MI


ya veras que todo lo que haces se paga en la vida
     LA                                      MI
y sentirás,como duele el alma cuando se marchita sangra mi agonía
      RE                               LA                 MI

ya veras que todo lo que haces se paga en la vida
     LA                                      MI
y sentirás,como duele el alma cuando se marchita sangra mi agonía
      RE                               LA                 MI

ya veras que todo lo que haces se paga en la vida
     LA                                      MI
y sentirás,como duele el alma cuando se marchita sangra mi agonía
      RE                               LA                 MI


por la herida
          FA#m

e/|-9-7------------|
B/|----10-9--------|
G/|--------9-9/11v-|  ..... Esta es la parte final
D/|----------------|
A/|----------------|
E/|----------------|





Calificar esta versión:
Aviso: Este fichero es trabajo propio de su transcriptor y representa su interpretación personal de la canción. El material contenido en esta página es para exclusivo uso privado, por lo que se prohibe su reproducción o retransmisión, así como su uso para fines comerciales.