Mentira, Antologia (tablatura)

Autor: Anónimo | 15566 visualizaciones



holas este es mi primer TAB espero que este bien
cualquier duda no olviden preguntar. Chao
         A         E       Bm      D       Bm      D     E
E|---9-7------------||---------------|---------------------||
B|------10-10-10/9--||-------------7-|-------------7-7/9-5-||
G|--9--------------9||-7-6-7-7-7/9---|-7-6-7-7-7/9---------||
D|------------------||---------------|---------------------||
A|------------------||---------------|---------------------||
E|------------------||---------------|---------------------||

         A         E        Bm   D         Bm  D         E
E|---9-7----------12||-10-9-10-7---|-10-9-10-7----14/16-12--||
B|------10-10-10/9--||-----------7-|-----------7------------||
G|--9---------------||-------------|------------------------||
D|------------------||-------------|------------------------||
A|------------------||-------------|------------------------||
E|------------------||-------------|------------------------||

Esta cancion la dedico a una chica muy especial para ti Guadalupe





Calificar esta versión:
Aviso: Este fichero es trabajo propio de su transcriptor y representa su interpretación personal de la canción. El material contenido en esta página es para exclusivo uso privado, por lo que se prohibe su reproducción o retransmisión, así como su uso para fines comerciales.