Luz, Antologia (tablatura)

Autor: Anónimo | 29327 visualizaciones



                                         SIb
|------------------------------------------------------------------------|
|-----5-5h6-5---5h6-5---6-5h6p5---8----65------------------------------5-|
|-777---------7-------7---------7--------7-------------------------777---|
|------------------------------------------------------------------------|
|------------------------------------------------------------------------|
|------------------------------------------------------------------------|

                                  FA
|--------------------------------|----------------------------5-7-|
|5h6-5---5h6-5---8-6-------------|--------------------------------|
|------7-------7-------7-5h7---75|--------------------------------|
|--------------------------------|7-------------------------------|
|--------------------------------|--------------------------------|
|--------------------------------|--------------------------------|

                                  LA      REm     FA
|7h8-7-5-7h8-7-5-7h8-7-5-1010----|------------5-7-7h8-7-5-7h8-7-5-|
|------------------------1010--10|8-----5-6-----------------------|
|------------------------------10|9-----6-7-----------------------|
|--------------------------------|--------------------------------|
|--------------------------------|--------------------------------|
|--------------------------------|--------------------------------|

         SOL        LA      REm    LA-REm-LA-REm
|7h8-7-5-10/12--8-----------------|
|---------------10108-----5-6-----|
|-----------------109-----6-7-----|
|---------------------------------|
|---------------------------------|
|---------------------------------|


SIb
Ingrata, tú fuiste luz de mi vida
                                                    LAm         FA
ingrata, ven, a apagar el incendio de amor que me está consumiendo
                                   DO FA
Te acuerdas, Luz, fui un pez en el agua
                                                           LA REm
Te acuerdas, Luz, navegué rio arriba en busca del néctar sagrado
      FA                             SOL        LA REm
me perdí en los bosques en busca del fruto prohibido.


     SIb
Pero hoy que te alejas de mí, oye negra indolente
                                LAm      FA
¿quieres que siga viviendo en este tormento?
     SIb
Pero hoy que te alejas de mí, oye negra indolente
                                LAm      FA
¿quieres que siga viviendo en este tormento?

                            DO  FA
Te juro, Luz, te amaré para siempre
                                                               LA REm
Te juro, Luz, el respeto sincero será el cimiento de nuestro cariño
      FA                               SOL       LA REm
el respeto sincero será el cimiento de nuestro cariño.



|-101010-12-12h13--12-10-13-12-10-15-----131210------------------|
|----------------------------------------------------------------|
|----------------------------------------------------------------|
|----------------------------------------------------------------|
|----------------------------------------------------------------|
|----------------------------------------------------------------|


|-101010-12-12/h13-12-10-10h13-12-10-13-12-10--13/15-15------------------|
|-------------------------------------------------------15-13h15-15p13---|
|---------------------------------------------------------------------14-|
|------------------------------------------------------------------------|
|------------------------------------------------------------------------|
|------------------------------------------------------------------------|


|-------5-7-8----------------------5-7-8----------------10-10------------|
|-5-6-8----------------------5-6-8----------------10-10-10-10-10-8---5-6-|
|-------------------------------------------------------------10-9---6-7-|
|------------------------------------------------------------------------|
|------------------------------------------------------------------------|
|------------------------------------------------------------------------|

|-------5-7-8----------------------5-7-8----------------10-10------------|
|-5-6-8----------------------5-6-8----------------10-10-10-10-10-8---5-6-|
|-------------------------------------------------------------10-9---6-7-|
|------------------------------------------------------------------------|
|------------------------------------------------------------------------|
|------------------------------------------------------------------------|


Pero hoy que te alejas de mí, oye negra indolente
¿quieres que siga viviendo en este tormento?
Pero hoy que te alejas de mí, oye negra indolente
¿quieres que siga viviendo en este tormento?

Te juro, Luz, te amaré para siempre
Te juro, Luz, el respeto sincero será el cimiento de nuestro cariño
el respeto sincero será el cimiento de nuestro cariño (x4)





Calificar esta versión:
Aviso: Este fichero es trabajo propio de su transcriptor y representa su interpretación personal de la canción. El material contenido en esta página es para exclusivo uso privado, por lo que se prohibe su reproducción o retransmisión, así como su uso para fines comerciales.