Los Que Marcan El Camino, Animal (tablatura)

Autor: Anónimo | 35839 visualizaciones



AFINACION(cuerdas)

4-B
5-F#
6-B

Riff 1

B---0-0--0-2-2--2-3-3--3-2-2-0-2-0-0-0-0-0-0-0-0
F#--0-0--0-2-2--2-3-3--3-2-2-0-2-0-0-0-0-0-0-0-0
B---0-0--0-2-2--2-3-3--3-2-2-0-2-0-0-0-0-0-0-0-0
                                 pm.............

Riff 2

B---0-2-3-2-0-2-3-2-0-2-3-2-0-2-0-0-0-0-0-0-0-0 
F#--0-2-3-2-0-2-3-2-0-2-3-2-0-2-0-0-0-0-0-0-0-0 
B---0-2-3-2-0-2-3-2-0-2-3-2-0-2-0-0-0-0-0-0-0-0 
                                pm.............
Riff 3      

B--5---4---0-0-0-0-0-0-0-0
F#-5---4---0-0-0-0-0-0-0-0
B--5---4---0-0-0-0-0-0-0-0
           pm.............


Riff 4

B-------0---2---3---2---
F#----0---2---3---2-----
B---0---2---3---2-------

Fill 1

B-------0---2-0-0-0-0-0-0-0-0
F#----0---2---0-0-0-0-0-0-0-0
B---0---2-----0-0-0-0-0-0-0-0
              pm.............

Riff 5

B--0-0-0-0-0-0-0-0
F#-0-0-0-0-0-0-0-0
B--0-0-0-0-0-0-0-0
   pm.............

Riff 6

B--0-0-0-2--0-0-0-3--0-0-0-5--4-4-3-3-4-4-3-3
F#-0-0-0-2--0-0-0-3--0-0-0-5--4-4-3-3-4-4-3-3
B--0-0-0-2--0-0-0-3--0-0-0-5--4-4-3-3-4-4-3-3
   pm...    pm...    pm...


Riff 1 (4 veces)

Punta de lanza,
patrones del pueblo se hicieron llamar
los que marcan el camino
cada palabra como una granada de revolución
sacrificaron su mundo para darselo a los demás
y enseñarles el camino y hoy no podemos dejar de llevarlos en cada actitud.

Riff 2 (1 vez)
¡No podemos olvidar!

Riff 1 (4 veces)

Uno entre muchos millones que supo a la masa guiar
lleva al pueblo a su destino
fueron dejando la huella profunda hacia la libertad
todo principio es una enseñanza por eso ellos son...
los que marcan el camino
herencia de sabios,ejemplo de vida supieron dejar.

Riff 3 (2 veces)

Respetados por ser nobles
un momento de su historia
vive para siempre.

Riff 4 (3 veces)

Vientos del alba huelen a libertad
son los nuevos pioneros en su inquieta ansiedad
cualquiera de nosotros puede lograr

Fill 1 (1 vez)

escribir en esta historia una pagina mas hoy

Riff 6 (4 veces)

Mas,mas,mas

mas,mas,mas

mas,mas,mas

mas,mas,mas


solo el bajo(esa parte no me la saque)

PARTE QUE SE ESCUCHA MIENTRAS ESTA EL BAJO

B--0---0---0-0-0-0-0-0-0-0
F#-0---0---0-0-0-0-0-0-0-0
B--0---0---0-0-0-0-0-0-0-0

Riff 1 (4 veces)

Punta de lanza
patrones del pueblo se hicieron llamar.....
los que marcan el camino
cada palabra como una granada de revolucion
sacrificaron su mundo para darselo a los demas
y enseñarles el camino y hoy no podemos dejar de llevarlos en cada actitud.

Riff 3 (2 veces)

Respetados por ser nobles
un momento de su historia
vive para siempre.

Riff 4 (3 veces)

Vientos del alba huelen a libertad
son los nuevos pioneros en su inquieta ansiedad
cualquiera de nosotros puede lograr

Fill 1 (1 vez)

escribir en esta historia una pagina mas hoy

Riff 6 (4 veces)

Mas,mas,mas

mas,mas,mas

mas,mas,mas

mas,mas,mas

Riff 6 (2 veces)(el RIFF va con palm muting)

Mas,mas,mas

mas,mas,mas(vamos amigos gritemos mas fuerte)

Riff 6 (4 veces)

mas,mas,mas

mas,mas,mas

mas,mas,mas

mas,mas,mas

EL FINAL ES SOLO ESTO

B-----------------
F#----3----------
B-----------------

Fuente original: LaCuerda
Colaborador original: luis daniel abrego solis [[email protected] ]





Calificar esta versión:
Aviso: Este fichero es trabajo propio de su transcriptor y representa su interpretación personal de la canción. El material contenido en esta página es para exclusivo uso privado, por lo que se prohibe su reproducción o retransmisión, así como su uso para fines comerciales.