Hijos Del Sol, Animal (tablatura)

Autor: Anónimo | 44359 visualizaciones



=================================================
Esta es la version en vivo cuando son invitados
a tocar en la penitenciaria #1 Lisandro Olmos
en BSAS 
==================================================
La viola esta afinada en RE (D)

intro:
1|----------------------------------------------------|
2|----------------------------------------------------|
3|----------------------------------------------------|
4|----------------------------------------------------|
5|------2-2--9-7-5-4-3--7-5-4-3-2--9-7-5-4-3--7-5-4-3-|
6|-7/1--0-0--7-5-3-2-1--5-3-2-1-0--7-5-3-2-1--5-3-2-1-|
                                             pm......    
1|--------------------------------------|
2|--------------------------------------|
3|--------------------------------------|
4|--------------------------------------|
5|-7/9-9-9-9/7-7-7-7/9-9-9-9/7-7-7--5-2-|
6|-5/7-7-7-7/5-5-5-5/7-7-7-7/5-5-5--3-0-|

1|------------------------------|
2|------------------------------|
3|------------------------------|
4|------------------------------|
5|-5-7-9--9-7-5--5-7-9--9-7-5---|
6|-3-5-7--7-5-3--3-5-7--7-5-3---|

Riff 1
1|---------------------------------|
2|---------------------------------|
3|---------------------------------|
4|---------------------------------|
5|-2-2-2-2---------2-2-2-2---------|
6|-0-0-0-0-1-1-1-1-0-0-0-0-1-1-1-1-|
          pm......         ....... 

Riff 2
1|--------------------------------------|
2|--------------------------------------|
3|--------------------------------------|
4|--------------------------------------|
5|-7/9-9-9-9/7-7-7-7/9-9-9-9/7-7-7--5-2-|
6|-5/7-7-7-7/5-5-5-5/7-7-7-7/5-5-5--3-0-|

Estribillo
1|------------------------------------------|
2|------------------------------------------|
3|------------------------------------------|
4|-----------7-7--------------------5-5-5---|
5|-2-2--5-5--5-5--9-7-5-7--2-2-2-5--3-3-3-3-|
6|-0-0--3-3-------7-5-3-5--0-0-0-3--------1-|
                          pm....    .....

el final
1|-----------------------||----------------|
2|-----------------------||----------------|
3|-----------x5----------||----------------|
4|-----------------------||----------------|
5|-----------------------||----------------|
6|-0-0-3-7-6-5-3-6-6-6-6-||0-0-3-7-6-5-3-6-|

Eso es todo espero que les sirva traten de conseguir
esta verción esta muy copada como suena en vivo.

Fuente original: LaCuerda
Colaborador original: Simon Nicolas Torres [simon@pdeseado.com.ar]





Calificar esta versión:
Aviso: Este fichero es trabajo propio de su transcriptor y representa su interpretación personal de la canción. El material contenido en esta página es para exclusivo uso privado, por lo que se prohibe su reproducción o retransmisión, así como su uso para fines comerciales.