Ayer Iba Tan Guapa, Andy Y Lucas (tablatura)

Autor: Anónimo | 17087 visualizaciones

____ acordes ____________
|                       |
| F#m:   244222         |
| E:     022100         |
| D:     000232         |
| E2:    X22454         |
| Bm:    224432         |
| Esus4: X22455         |
| A:     002220         |
| A2:    577655         |
|_______________________|




[intro]:
    F#m                  E
F-||--------------------|-----------------7--|
B-||7s2-----------------|-----------7-10-----|
G-||--------------------|-------6-9----------|
D-||--------------------|--------------------|
A-||--------------------|--------------------|
F-||--------------------|--------------------|

    F#m                  E
F-||--------------------|--------------7-9---|
B-||10s7----------------|-----------10-----10|
G-||--------------------|--------6-----------|
D-||--------------------|--------------------|
A-||--------------------|--------------------|
F-||--------------------|--------------------|

    D                    E2
F-||9-------------10--9-|7----------------7--|
B-||--------------------|-------------10-----|
G-||--------------------|--------------------|
D-||--------------------|--------------------|
A-||--------------------|--------------------|
F-||--------------------|--------------------|

    D                    E2
F-||9-------------10--9-|7-------------7-----|
B-||--------------------|---------10------7s2|
G-||--------------------|--------------------|
D-||--------------------|--------------------|
A-||--------------------|--------------------|
F-||--------------------|--------------------|



               F#m   E
Ayer iba tan guapa
          F#m               E
Que no sabía si morirme de pena
                  E2    D
O el comérmela a besos

               F#m   E
Ayer iba tan guapa
              F#m                E
Que hasta la calle susurraba su nombre
                   E2    D
Por cada paso que daba

               Bm
Ayer iba tan guapa

Que todavía me pregunto si la suerte
                    D
Un día me dió la espalda
           Esus4  E2
A mí la espalda


               F#m   E
Ayer iba tan guapa
             F#m          E
Que cuando llora por ese niño
                 E2   D
A mí me quema el alma

               F#m   E
Ayer iba tan guapa
         F#m                E
Que todavía no entiendo que ella
                 E2   D
De él esté enamorada

               Bm
Ayer iba tan guapa

Que todavía me pregunto si la suerte
                    D
Un día me dió la espalda
           Esus4  E2
A mí la espalda


                 F#m
Tú que eres su amiga
               E
Dile que la quiero
                 D
Tú que estás con ella
              E
Dile que me muero
                   A
Guardián de su secreto
               E
Dile que me encelo
             D
Si yo no la tengo
    A2
La tengo

                 F#m
Tú que eres su amiga
              E
Él no le conviene
                 D
Tú que estás con ella
            E
Él no la merece
                   A
Yo sé que no la quiere
                  E
Siento que se desvive
                D
Y él no lo agradece
     A2
Agradece



[repetir intro]


               F#m   E
Ayer iba tan guapa
         F#m                      E
Que todavía me pregunto si algún día
                   E2   D
Pondrá en mí su mirada

               F#m   E
Ayer iba tan guapa
           F#m          E
Que se le nota en la mirada
                           E2        D
Que ella vive tan triste y enamorada

               Bm
Ayer iba tan guapa

Que mis ojitos esquivaban su mirada
                    D
Para no arañarme el alma
         Esus4  E2
Mi pobre alma


                 F#m
Tú que eres su amiga
               E
Dile que la quiero
                 D
Tú que estás con ella
              E
Dile que me muero
                   A
Guardián de su secreto
               E
Dile que me encelo
             D
Si yo no la tengo
    A2
La tengo

                 F#m
Tú que eres su amiga
              E
Él no le conviene
                 D
Tú que estás con ella
            E
Él no la merece
                   A
Yo sé que no la quiere
                  E
Siento que se desvive
                D
Y él no lo agradece
     A2
Agradece


                 F#m
Tú que eres su amiga
               E
Dile que la quiero
                 D
Tú que estás con ella
              E
Dile que me muero
                   A
Guardián de su secreto
               E
Dile que me encelo
             D
Si yo no la tengo (oh no)
    A2
La tengo

                 F#m
Tú que eres su amiga
              E
Él no le conviene
                 D
Tú que estás con ella
            E
Él no la merece
                   A
Yo sé que no la quiere (sé que no)
                  E
Siento que se desvive (sé que no)
                D
Y él no lo agradece
     A2
Agradece



[final]:
    F#m                  E
F-||7h9-----------10--7-|9-------------7-9---|
B-||--------------------|-----------10-----10|
G-||--------------------|--------------------|
D-||--------------------|--------------------|
A-||--------------------|--------------------|
F-||--------------------|--------------------|

    F#m                  E
F-||7h9-----------10--7-|9-------------------|
B-||--------------------|-----------10--7----|
G-||--------------------|-----------------9--|
D-||--------------------|--------------------|
A-||--------------------|--------------------|
F-||--------------------|--------------------|



###------------------------------###
### Tablatura de: Enrique Moraño ###
### Sevilla [Spain]     MAR-2007 ###
###      emorano@hotmail.com     ###
###------------------------------###
Calificar esta versión:
Aviso: Este fichero es trabajo propio de su transcriptor y representa su interpretación personal de la canción. El material contenido en esta página es para exclusivo uso privado, por lo que se prohibe su reproducción o retransmisión, así como su uso para fines comerciales.