She Is Beautiful, Andrew Wk (tablatura)

Autor: Niña Gótica | 24058 visualizaciones

Intro:
G|-----------------------------------------|
D|--12-0-7-0-12-0-5-0-12-0-11-0-11-12-0-7--|

G|-----------------------------------------|
D|--12-0-7-0-12-5---0--5-0-11-0-11-12-0-7--|
^

G|-----------------------------------------|
D|--12-0-5-0-12-0-3-0-12-0-11-0-11-12-0-7--|

G|------------------------------11---------|
D|--12-0-7-0-12-5---0--5-0-14-0----12------|
^

G|---------------------|
D|--12-12---12-12-12---| x 4




D|--5-5-555-0---7-7-7-7/12---5-5-555-0-------------------|
A|--5-5-555-0---7-7-7-7/12---5-5-555-0---4-0-4-5--5/7-5--|
D|--5-5-555-0---7-7-7-7/12---5-5-555-0-------------------|

D|--5-5-555-0---7-7-7-7/12---5-5-555-0-------------------|
A|--5-5-555-0---7-7-7-7/12---5-5-555-0---5-4-7-5---------|
D|--5-5-555-0---7-7-7-7/12---5-5-555-0-------------------|


D|--5-5-5-5-0-0-0-0--7-7-7-7/12--125--5-5-555-0-------------------|
A|--5-5-5-5-0-0-0-0--7-7-7-7/12--125--5-5-555-0---4-0-4-5--5/7-5--|
D|--5-5-5-5-0-0-0-0--7-7-7-7/12--125--5-5-555-0-------------------|


D|--5-5-555-0---7-7-7-7/12--125--5-5-555-0-------------------|
A|--5-5-555-0---7-7-7-7/12--125--5-5-555-0---5-4-7-5---------|
D|--5-5-555-0---7-7-7-7/12--125--5-5-555-0-------------------|

D|--5-5-5-5-0-0-0-0--7-7-7-7/12--125--5-5-555-0-------------------|
A|--5-5-5-5-0-0-0-0--7-7-7-7/12--125--5-5-555-0---5-4-7-5---------|
D|--5-5-5-5-0-0-0-0--7-7-7-7/12--125--5-5-555-0-------------------|




G|-------------------|
D|--0-0-0-0-0-0-0-0--|
A|--0-0-0-0-0-0-0-0--|
D|--0-0-0-0-0-0-0-0--| x 4


G|--7-7-7-7-7-7-7-7--|
D|--x-x-x-x-x-x-x-x--|
A|--x-x-x-x-x-x-x-x--|
D|--0-0-0-0-0-0-0-0--| x 4




"I never knew girls existed like you..."
G|----------------------------------------------|
D|--11-12-0-0--11-12-0-0--11-12-0-0--11-12-0-0--|
A|--11-12-0-0--11-12-0-0--11-12-0-0--11-12-0-0--|
D|--11-12-0-0--11-12-0-0--11-12-0-0--11-12-0-0--|

G|-------------------9-11-11-11--7-------|
D|--7-5-5-5-5-7-7-7--9-11-11-11--7--7-0--|
A|--7-5-5-5-5-7-7-7--7--9--9--9--5--7-0--|
D|--7-5-5-5-5-7-7-7-----------------7-0--|




"The girls too young..."
G|-------------------------6----------|
D|--4-5-5-5-5-5-5-5--7-7-7-6---0-2-4--|
A|--4-5-5-5-5-5-5-5--7-7-7-4---0-2-4--|
D|--4-5-5-5-5-5-5-5--7-7-7-----0-2-4--|


G|-------------------------6----------|
D|--4-5-5-5-4-5-5-5--7-7-7-6---0-2-4--|
A|--4-5-5-5-4-5-5-5--7-7-7-4---0-2-4--|
D|--4-5-5-5-4-5-5-5--7-7-7-----0-2-4--|


G|------------------------------------|
D|--0-0-0-0-0-0-0-0--0-7-7-0-0-7-7-0--|
A|--0-0-0-0-0-0-0-0--0-7-7-0-0-7-7-0--|
D|--0-0-0-0-0-0-0-0--0-7-7-0-0-7-7-0--|


G|------------------------------------|
D|--0-0-x-x-x-x-x-x--0-7-7-0-0-7-7-0--|
A|--0-0-5-5-5-5-5-5--0-7-7-0-0-7-7-0--|
D|--0-0-0-0-0-0-0-0--0-7-7-0-0-7-7-0--|


G|------7-7-7-7-7-7-------------------|
D|--0-0-7-7-7-7-7-7--5-----5-----5-7--|
A|--0-0-5-5-5-5-5-5--5-----5-----5-7--|
D|--0-0--------------5-----5-----5-7--|


G|------7-7-7-7-7-7-------------------|
D|--0-0-7-7-7-7-7-7-------------------|
A|--0-0-5-5-5-5-5-5-------------------|
D|--0-0-------------------------------|




"She is Beautiful, She is Beautiful..."
G|--------------------------------|
D|--5--0-5-4--0-4-2-4-2-0--0-0-0--|
A|--5--0-5-4--0-4-2-4-2-0--0-0-0--|
D|--5--0-5-4--0-4-2-4-2-0--0-0-0--|

G|--------------------7--7-7--|
D|--7--5-5-5-5-5---7--7--7-7--|
A|--7--5-5-5-5-5---7--5--5-5--|
D|--7--5-5-5-5-5---7----------|

G|--------------------------------|
D|--5--0-5-3--0-3-2-3-2-0--0-0-0--|
A|--5--0-5-3--0-3-2-3-2-0--0-0-0--|
D|--5--0-5-3--0-3-2-3-2-0--0-0-0--|

G|--------------------7--7-7--|
D|--7--5-5-5-5-5---7--7--7-7--|
A|--7--5-5-5-5-5---7--5--5-5--|
D|--7--5-5-5-5-5---7----------|




"I ain`t got nothing to lose..."
G|--7-7-7-7-7-7-7-7--7-7-7-7-7-7-7-7--|
D|--7-7-7-7-7-7-7-7--7-7-7-7-7-7-7-7--|
A|--5-5-5-5-5-5-5-5--5-5-5-5-5-5-5-5--|
D|------------------------------------|

G|------------------------------------|
D|--5-5-5-5-5-5-5-5--5-5-5-5-5-5-5-5--|
A|--5-5-5-5-5-5-5-5--5-5-5-5-5-5-5-5--|
D|--5-5-5-5-5-5-5-5--5-5-5-5-5-5-5-5--|

G|------------------------------------|
D|--7-7-7-7-7-7-7-7--7-7-7-7-7-7-7-7--|
A|--7-7-7-7-7-7-7-7--7-7-7-7-7-7-7-7--|
D|--7-7-7-7-7-7-7-7--7-7-7-7-7-7-7-7--|

G|--7-7-7-7-7-7-7-7--7-7-7-7----------|
D|--7-7-7-7-7-7-7-7--7-7-7-7-5---7----|
A|--5-5-5-5-5-5-5-5--5-5-5-5-5---7----|
D|---------------------------5---7----|

"I ain`t got nothing to lose..."
G|--7-7-7-7-7-7-7-7--7-7-----7-7-7-7--|
D|--7-7-7-7-7-7-7-7--7-7-7-7-7-7-7-7--|
A|--5-5-5-5-5-5-5-5--5-5-7-7-5-5-5-5--|
D|-----------------------7-7----------|

G|------------------------------------|
D|--5-5-5-5-5-5-5-5--5-5-5-5-5-5-5-5--|
A|--5-5-5-5-5-5-5-5--5-5-5-5-5-5-5-5--|
D|--5-5-5-5-5-5-5-5--5-5-5-5-5-5-5-5--|

G|------------------------------------|
D|--7-7-7-7-7-7-7-7--7-7-7-7-7-7-7-7--|
A|--7-7-7-7-7-7-7-7--7-7-7-7-7-7-7-7--|
D|--7-7-7-7-7-7-7-7--7-7-7-7-7-7-7-7--|

G|--7-7-7-7-7-7-7-7--7-7-7-7----------|
D|--7-7-7-7-7-7-7-7--7-7-7-7-5---7----|
A|--5-5-5-5-5-5-5-5--5-5-5-5-5---7----|
D|---------------------------5---7----|



Calificar esta versión:
Aviso: Este fichero es trabajo propio de su transcriptor y representa su interpretación personal de la canción. El material contenido en esta página es para exclusivo uso privado, por lo que se prohibe su reproducción o retransmisión, así como su uso para fines comerciales.