Por Ti Volare (time To Say Goodbye), Andrea Bocelli (tablatura)

Autor: alexlerma | 20378 visualizaciones



POR TI VOLARE DE ALEX PARA HANNY <3 *.*

6---------------------------------------------------------------------------------------------------------------------------------
5---------------------------------------------------------------------------------------------------------------------------------
4---------------------------------------------------------------------------------------------------------------------------------
3---------------------------------------------------------------------------------------------------------------------------------
2----1--2-5-2-5-7-5-7-8-7-8---------8-5---------------------------------------------------------------
1---------------------------------------5---------5-7-8-7---------------------------------------------

6-----------------------------------------------------------------------------------------------------
5-----------------------------------------------------------------------------------------------------
4-----------------------------------------------------------------------------------------------------
3-----------------------------------------------------------------------------------------------------
2----1--2-5-2-5-7-5-7-8-7-8---------8-5---------------------------------------------------------------
1---------------------------------------5---------5-7-8-7---------------------------------------------------------------------

6-----------------------------------------------------------------------------------------------------
5-----------------------------------------------------------------------------------------------------
4-----------------------------------------------------------------------------------------------------
3-----------------------------------------------------------------------------------------------------
2----8-7-5-7-------3/5----5/7?3-5-3-3-3-----8-7-3-3--3-3-3---------8-8-7----------------------------
1---------------8-7--------------------------------------------------------7-8-----------------------






6-----------------------------------------------------------------------------------------------------
5-----------------------------------------------------------------------------------------------------
4-----------------------------------------------------------------------------------------------------
3-----------------------------------------------------------------------------------------------------
2-3-3-5-3-3----8-7-----5------------8-8-8--7----------------------------------------------------------
1-------------------------5-----5-7--8----------------------------------------------------------------

6-----------------------------------------------------------------------------------------------------
5-----------------------------------------------------------------------------------------------------
4-----------------------------------------------------------------------------------------------------
3-----------------------------------------------------------------------------------------------------
2------3--------------------------------------------15-------------15--12---15-10-13-12--10-8-7-3-----
1---------3-2-5-3-5-7-7-5-8-7-3------15-14-------15-14------------------------------------------------

6-----------------------------------------------------------------------------------------------------
5-----------------------------------------------------------------------------------------------------
4-----------------------------------------------------------------------------------------------------
3-----------------------------------------------------------------------------------------------------
2-----------------------------------15-------------15------12---15-10-13-12--10-8-7------------
1-----3--3-2-5-3-5-7-7-7-7-7-5-8-7-3------15-14-------15-14-------------------------------------------



6-----------------------------------------------------------------------------------------------------
5-----------------------------------------------------------------------------------------------------
4---------------------------------------------------------------------------------------------------
3-----------------------------------------------------------------------------------------------------
2----1--3-5-3-5-7-5-7-8-7-8---------8-5-----------------1--3-5-3-5-7-5-7------8-----------------------
1---------------------------------------5---------5-7-8-7---------------------------5------7----------

6---------------------------------------------------------------------------------------------------------------------------------
5---------------------------------------------------------------------------------------------------------------------------------
4---------------------------------------------------------------------------------------------------------------------------------
3---------------------------------------------------------------------------------------------------------------------------------
2----1--3-5-3-5-7-5-7-8------------1--3-5-3-5-7-5-7--------------------3------------------------------
1--------------------------------------------------------------5------7-5-8-7-------------------------


6-----------------------------------------------------------------------------------------------------
5-----------------------------------------------------------------------------------------------------
4-----------------------------------------------------------------------------------------------------
3--------------------------------------------------------------------------------------------------
2------3--------------------------------------------15-------------15--12---15-10-13-12--10-8-7-3----
1---------3-2-5-3-5-7-7-5-8-7-3------15-14-------15-14------------------------------------------------






6-----------------------------------------------------------------------------------------------------
5---------------------------------------------------------------------------------------------------
4-----------------------------------------------------------------------------------------------------
3-----------------------------------------------------------------------------------------------------
2------3--------------------------------------------15-------------15--12---15-10-13-12--10-8-7-3-----
1---------3-2-5-3-5-7-7-5-8-7-3------15-14-------15-14------------------------------------------------

6-----------------------------------------------------------------------------------------------------
5-----------------------------------------------------------------------------------------------------
4-----------------------------------------------------------------------------------------------------
3-----------------------------------------------------------------------------------------------------
2-----------------------------------15-------------15--12---15-10-13-12--10-8-7------------
1----3--3-2-5-3-5-7-7-7-7-7-5-8-7-3------15-14-------15-14--------------------------------------------

6-----------------------------------------------------------------------------------------------------
5---------------------------------------------------------------------------------------------------
4-----------------------------------------------------------------------------------------------------
3-----------------------------------------------------------------------------------------------------
2-------5---------------------------------------------------------------------------------------------
1----------5--5---4--7-5---------12--14--15------------------------------------------------------------------------------













Letra:
SAHARA BRIGMAN
CUANDO VIVO SOLO SUEÑO UN HORIZONTE FALTO DE PALABRAS 
ENTRE SOMBRAS Y ENTRE LUCES TODO ES NEGRO PARA MI MIRADA
SI TU NO ESTAS JUNTO A MI AQUÍ
TU EN TU MUNDO SEPARADO DEL MIO POR UN AVISMO 
OYE LLAMAME YO VOLARE A TU MUNDO LEJANO
CORO:
POR TI VOLARE ESPERA QUE LLEGARE 
MI FIN DEL TRAYECTO ERES TU PARA VIVIRLO LOS DOS
POR TI VOLARE POR CIELOS Y MARES HASTA TU AMOR
ABRIENDO LOS OJOS POR FIN CONTIGO VIVIRE
ANDREA BOCELLI
CUANDO ESTAS LEJANA SUEÑO UN HORIZONTE FALTO DE PALABRAS 
Y YO SE QUE SIEMPRE ESTAS HAY HAY
UNA LUNA HECHA PARA MI
SIEMPRE ILUMINADA PARA TI POR MI POR TI POR MI
CORO:
CORO:
POR TI VOLARE ESPERA QUE LLEGARE 
MI FIN DEL TRAYECTO ERES TU PARA VIVIRLO LOS DOS
POR TI VOLARE POR CIELOS Y MARES HASTA TU AMOR
ABRIENDO LOS OJOS POR FIN CONTIGO VIVIRE
VOLARE

especial mete para hanni villatoro espero les guste :3





Comentarios del colaborador: especial mente para hanni villatoro espero les guste :3

Calificar esta versión:
Aviso: Este fichero es trabajo propio de su transcriptor y representa su interpretación personal de la canción. El material contenido en esta página es para exclusivo uso privado, por lo que se prohibe su reproducción o retransmisión, así como su uso para fines comerciales.