Tu Me Matas, Anabantha (tablatura)

Autor: Niña Gótica | 28603 visualizaciones

Intro:


e--9-------8--------6-------8-------9-------8-------6-------8------------
B----6---6---6---6----6---6---6---6---6---6---6---6---6---6---6---6------
G------8-------8--------8-------8-------8-------8-------8-------8--------
D------------------------------------------------------------------------
A------------------------------------------------------------------------
E------------------------------------------------------------------------

e--------9-------8--------6-------8-9--4-------6-------4-------6-------
B----------6---6---6---6----6---6--------4---4---4---4---4---4---4---4-
G------------8-------8--------8------------6-------6-------6-------6---
D----------------------------------------------------------------------
A----------------------------------------------------------------------
E----------------------------------------------------------------------



Cielo hundido entre el humo     de un cigarro consumido
e--------9-------8--------6-------8-9--4-------6-------4-------6-------
B----------6---6---6---6----6---6--------4---4---4---4---4---4---4---4-
G------------8-------8--------8------------6-------6-------6-------6---
D----------------------------------------------------------------------
A----------------------------------------------------------------------
E----------------------------------------------------------------------

Mis caricias son de fuego       y tu llanto lo apago
e--------9-------8--------6-------8-9--4-------6-------4-------6-------
B----------6---6---6---6----6---6--------4---4---4---4---4---4---4---4-
G------------8-------8--------8------------6-------6-------6-------6---
D----------------------------------------------------------------------
A----------------------------------------------------------------------
E----------------------------------------------------------------------

Mi sonrisa es una estatua    y se llama soledad
e--------9-------8--------6-------8-9--4-------6-------4-------6-------
B----------6---6---6---6----6---6--------4---4---4---4---4---4---4---4-
G------------8-------8--------8------------6-------6-------6-------6---
D----------------------------------------------------------------------
A----------------------------------------------------------------------
E----------------------------------------------------------------------
E----------------------------------------------------------------------


Las paredes nunca mienten        y te aplastan al soñar
e--------9-------8--------6-------8-9--4-------6-------4-------6-------
B----------6---6---6---6----6---6--------4---4---4---4---4---4---4---4-
G------------8-------8--------8------------6-------6-------6-------6---
D----------------------------------------------------------------------
A----------------------------------------------------------------------
E----------------------------------------------------------------------



Coro:

Y es que tú me matas………… (Las mismas notas del arpegio pero con rasgado)



e--9-------8--------6-------8-------9-------8-------6-------8------------
B----6---6---6---6----6---6---6---6---6---6---6---6---6---6---6---6------
G------8-------8--------8-------8-------8-------8-------8-------8--------
D------------------------------------------------------------------------
A------------------------------------------------------------------------
E------------------------------------------------------------------------

e--------9-------8--------6-------8-9--4-------6-------4-------6-------
B----------6---6---6---6----6---6--------4---4---4---4---4---4---4---4-
G------------8-------8--------8------------6-------6-------6-------6---
D----------------------------------------------------------------------
A----------------------------------------------------------------------
E----------------------------------------------------------------------


Tal nostalgia          nos ahoga en un mar de seducción
e--------9-------8--------6-------8-9--4-------6-------4-------6-------
B----------6---6---6---6----6---6--------4---4---4---4---4---4---4---4-
G------------8-------8--------8------------6-------6-------6-------6---
D----------------------------------------------------------------------
A----------------------------------------------------------------------
E----------------------------------------------------------------------

Mil caprichos nos aterran         no existe solución
e--------9-------8--------6-------8-9--4-------6-------4-------6-------
B----------6---6---6---6----6---6--------4---4---4---4---4---4---4---4-
G------------8-------8--------8------------6-------6-------6-------6---
D----------------------------------------------------------------------
A----------------------------------------------------------------------
E----------------------------------------------------------------------

Transparente como el viento         parece que yo te miento
e--------9-------8--------6-------8-9--4-------6-------4-------6-------
B----------6---6---6---6----6---6--------4---4---4---4---4---4---4---4-
G------------8-------8--------8------------6-------6-------6-------6---
D----------------------------------------------------------------------
A----------------------------------------------------------------------
E----------------------------------------------------------------------


Cristalina como el agua          parece que tu me amas
e--------9-------8--------6-------8-9--4-------6-------4-------6-------
B----------6---6---6---6----6---6--------4---4---4---4---4---4---4---4-
G------------8-------8--------8------------6-------6-------6-------6---
D----------------------------------------------------------------------
A----------------------------------------------------------------------
E----------------------------------------------------------------------



Coro:
Y es que tú me matas………… Y es que tú me matas…………
(Las mismas notas del arpegio pero con rasgado)



Tal nostalgia          nos ahoga en un mar de seducción
e--------9-------8--------6-------8-9--4-------6-------4-------6-------
B----------6---6---6---6----6---6--------4---4---4---4---4---4---4---4-
G------------8-------8--------8------------6-------6-------6-------6---
D----------------------------------------------------------------------
A----------------------------------------------------------------------
E----------------------------------------------------------------------

Mil caprichos nos aterran         no existe solución
e--------9-------8--------6-------8-9--4-------6-------4-------6-------
B----------6---6---6---6----6---6--------4---4---4---4---4---4---4---4-
G------------8-------8--------8------------6-------6-------6-------6---
D----------------------------------------------------------------------
A----------------------------------------------------------------------
E----------------------------------------------------------------------

Transparente como el viento         parece que yo te miento
e--------9-------8--------6-------8-9--4-------6-------4-------6-------
B----------6---6---6---6----6---6--------4---4---4---4---4---4---4---4-
G------------8-------8--------8------------6-------6-------6-------6---
D----------------------------------------------------------------------
A----------------------------------------------------------------------
E----------------------------------------------------------------------



Cristalina como el agua          parece que tu me amas
e--------9-------8--------6-------8-9--4-------6-------4-------6-------
B----------6---6---6---6----6---6--------4---4---4---4---4---4---4---4-
G------------8-------8--------8------------6-------6-------6-------6---
D----------------------------------------------------------------------
A----------------------------------------------------------------------
E----------------------------------------------------------------------


Coro:
Y es que tú me matas………… Y es que tú me matas………… Y es que tú me matas
(Las mismas notas del arpegio pero con rasgado)

Calificar esta versión:
Aviso: Este fichero es trabajo propio de su transcriptor y representa su interpretación personal de la canción. El material contenido en esta página es para exclusivo uso privado, por lo que se prohibe su reproducción o retransmisión, así como su uso para fines comerciales.