Sangre, Anabantha (acordes)

Autor: morpheus2040 | 35708 visualizaciones

ame5emf5g5
Intro de la cancion...

1-------------------10--------------------------------------
2-12/13-12-10-13-10----13-12-13--12-10----------------------
3--------------------------------------12---------------12~-
4-------------------------------------------------12/14-----
5-------------------------------------------14/15-----------
6-----------------------------------------------------------



1-------------------10-----------12~-10-12-12/17~-----------
2-12/13-12-10-13-10----13-12-13-----------------------------
3-----------------------------------------------------------
4-----------------------------------------------------------
5-----------------------------------------------------------
6-----------------------------------------------------------

Estrofa con Guitarra Limpia [sin Distorcion]

Am
Mil preguntas sin respuesta
Em
Tantos golpes sin piedad
Am
Tantas marcas de tristeza
Em
No me pidas perdonar


Am
Fuiste luz de las tinieblas
Em
En palabras de bondad
Am
Entre el mar de los profetas
Em
Me enseñaste a navegar

Am
Diste fin a este milagro
Em
Fuiste fuego al amar
Am
Fue más fácil ser esclavo
Em
Que abrazar mi libertad

Coro con Guitarra Distorcionada
F5               G5          E5
Sangre... si mis ojos lloran sangre
                    F5      G5
Es por que no estas aquí... aquí
F5               G5              E5
Sangre... en mis venas ya no hay sangre
                     F5      G5
Quiero estar junto a ti... A ti


*Algun dia Escribo el solo... es muy facil, tb pueden sacarlo...
usean las cadencias agudas de Em y Am*


Am
Mil preguntas sin respuesta
Em
Tantos golpes sin piedad
Am
Tantas marcas de tristeza
Em
Y hoy me pides perdonar

Am
Prometiste un lindo cielo
Em
Entre nubes de placer
Am
Con tus versos asesinos
Em
Vas matándome la sed


Am
Has tomado mi destino
Em
Me hechizaste con tu piel
Am
Con tu negro misticismo
Em
Corazón atrápame...



Coro:
F5               G5          E5
Sangre... si mis ojos lloran sangre
                    F5      G5
Es por que no estas aquí... aquí
F5               G5              F5
Sangre... en mis venas ya no hay sangre
                     F5      G5
Quiero estar junto a ti... A ti
Calificar esta versión:
Aviso: Este fichero es trabajo propio de su transcriptor y representa su interpretación personal de la canción. El material contenido en esta página es para exclusivo uso privado, por lo que se prohibe su reproducción o retransmisión, así como su uso para fines comerciales.