Flor (orochimaru), Anabantha (tablatura)

Autor: orochimaru | 26417 visualizaciones

hola como estan este tema va asi (orochimaru)  



              |---3---|
       E  S  E  S  E   E   E  E  Q    E.  Q    S
E||---------12-------------------0----3---1----L-|
B||---10----------13--12--13--L------------------|
G||*---------------------------------------------|
D||*---------------------------------------------|
A||----------------------------------------------|
E||------------------------L-------------------L-|


               |---3---|
   E  S  E  S  E   E   E  E   E  E   E   E   Q
--------12-------------------17-----15--13--12----|
--10----------13--12--13--L-----------------------|
--------------------------------------------------|
--------------------------------------------------|
--------------------------------------------------|
--------------------------L------------------L----|


               |---3---|
   E  S  E  S  E   E   E  E  Q    E.  Q    S
--------12-------------------0----3---1----L-|
--10----------13--12--13--L------------------|
---------------------------------------------|
---------------------------------------------|
---------------------------------------------|
---------------------------------------------|


               |---3---|
   E  S  E  S  E   E   E  E   E  E   E   E   Q
--------12-------------------17-----15--13--12-----||
--10----------13--12--13--L------------------------||
--------------------------------------------------*||
--------------------------------------------------*||
---------------------------------------------------||
---------------------------------------------------||


               |---3---|
   E  S  E  S  E   E   E  E   Q     Q     Q        H
--------12-------------------10----12----10----|---8--------|
--10----------13--12--13--L--12----13----12----|--10--------|
-----------------------------------------------|------------|
-----------------------------------------------|------------|
-----------------------------------------------|------------|
-----------------------------------------------|------------|


    Am
    ^      ^    v      v    ^    v
                       |----3----|
    Q.     Q    Q.     Q    Q    Q
|---0------0----0------0----0----0----|
|---1------1----1------1----1----1----|
|*--2------2----2------2----2----2----|
|*--2------2----2------2----2----2----|
|---0---------------------------------|
|-------------------------------------|


  C                                    F
  ^      ^    v      v    ^    v       ^      ^    v      v    ^    v
                     |----3----|                          |----3----|
  Q.     Q    Q.     Q    Q    Q       Q.     Q    Q.     Q    Q    Q
--0------0----0------0----0----0----|--1------1----1------1----1----1----|
--1------1----1------1----1----1----|--1------1----1------1----1----1----|
--0------0----0------0----0----0----|--2------2----2------2----2----2----|
--2------2----2------2----2----2----|--3------3----3------3----3----3----|
--3------3----3------3----3----3----|--3------3----3------3----3----3----|
------------------------------------|--1------1----1------1----1----1----|


  E7
  ^      ^    v      v    ^    v
                     |----3----|
  Q.     Q    Q.     Q    Q    Q     4x
--0------0----0------0----0----0-----||
--0------0----0------0----0----0-----||
--1------1----1------1----1----1----*||
--0------0----0------0----0----0----*||
--2------2----2------2----2----2-----||
--0------0----0------0----0----0-----||

Am                    C
Cuando las piedras se fundan
    F        E7
Con el calor de tu piel
Am                 C
Cuando los años te pudran
F        E7
En ti yo viviré
Am                    C
Lo que florezca en tu cuerpo
   F        E7
No se podrá marchitar
Am                    C
Los pétalos son los recuerdos
  F                   E7
Regados con llanto de libertad
   Am          C
El tiempo, los sueños
   F         E7
El llanto de libertad...
   Am        C
El viento se lleva
    F
Las alas del miedo
Calificar esta versión:
Aviso: Este fichero es trabajo propio de su transcriptor y representa su interpretación personal de la canción. El material contenido en esta página es para exclusivo uso privado, por lo que se prohibe su reproducción o retransmisión, así como su uso para fines comerciales.