Feliz, Ana Laura (tablatura)

Autor: Viciaoo | 24789 visualizaciones

intro de la cancion feliz....espero que les ayude....
ah (y tiene un poquito de delay effect en el intro pero esta tab es
por si no tienes delay por que sino solo le das una vez en vez de 3)



e-----------------
B---9-9-9-9p7--10-10-9-7-9-
G-----------------
D-----------------
A-----------------
E-----------------

e-----------------
B---9-9-9-9p7--10-10-9-7-9-
D-----------------
A-----------------
E-----------------

e-----------------
B---9-9-9-9p7--10-10-9-7-9-
G-----------------
D-----------------
A-----------------
E-----------------

e-----------------
B---9-9-9-9p7--10-10-9-7-9-7-7/9----
G-----------------
D-----------------
A-----------------
E-----------------

ESTE ES EL SOLO:

b: un bending (estirada de cuerda)ligero
b2: dos bendings ligeros
B: benging exagerado o bien alto
p: pull-off (quitar el dedo de la cuerda)
h: hammer on ( le das un golpesito a la cuerda en el traste que indica)



e------7-7-7-----------------------------
B-----------7-7-7--------------------------
G--8/9----------------9-9-9-8-8-8-8b2----
D----------------------------------------
A----------------------------------------
E----------------------------------------

e--9-9-9---------------------------------
B--------7-7-7---------------------------
G--------------9-9-9-8-8-8-8b2------------
D----------------------------------------
A----------------------------------------
E----------------------------------------

e-----7-7-7---------------------------------------------------
B-----------7-7-7--------------------------17-19-19B-17---
G--8/9----------------9-9-9-8-8-8-8-8/16-----------------18-16--
D---------------------------------------------------------------
A---------------------------------------------------------------
E---------------------------------------------------------------


que le sea de bendicion.....

Comentarios del colaborador: Esto lo puse en otra pagina pero no lo aceptaron....asi que si lo encuentran por ahi fui oy mismo...ajjaja

Calificar esta versión:
Aviso: Este fichero es trabajo propio de su transcriptor y representa su interpretación personal de la canción. El material contenido en esta página es para exclusivo uso privado, por lo que se prohibe su reproducción o retransmisión, así como su uso para fines comerciales.